Cifras para Violão e Guitarra » A »Alejandro Fernandez » Loco (Tab)

Loco
Alejandro Fernandez

Letras, cifras e tablaturas para violão, guitarra, piano, ukulele e baixo

  • Intro: Bb G# G7 Cm G7 Cm F7 Bb G7 Cm F7 Bb
    
    
     Bb
    Loco, me dicen loco
            Bb7.          Eb
    Porque hablo con las aves
             Cm               F7            Bb    Gm
    Y a los amigos que me encuentro por la calle
               C7.                F7
    No les platico de otra cosa que de ti.
    
     Bb
    Loco, porque me ama
          Bb7           Eb
    la mejor de las estrellas
                Cm.         F7.            Bb
    Porque se niegan a aceptar que la más bella
           C7               F7
    Haya bajado de tan alto para mí.
    
  •  A
    Loco
    
    me dicen loco
    Eº            D
    porque hablo con las aves
              Bm   E
    y a los amigos 
                      A          F#m
    que me encuentro por la calle
             B7
    no les platico
                   E      E7
    de otra cosa que de ti.
    
     A
    Loco
    
    por que me ama
         Eº             D
    
  • A
    Loco
    
    me dicen loco
       A7                 D
    porque hablo con las aves
       E7
    y a los amigos
                            A
    que me encuentro por la calle
               B7
    no les platico
                        E
    de otra cosa que de ti.
    
     A
    Loco
    
    por que me ama
        A7               D
    
  • e|------------13--13--11--11--10--10--8--8--7--7----------|
    B|------------15--15--13--13--12--12--9--9--8--8----------|
    G|--10--10------------------------------------------------|
    D|--12--12----------------------------------9--9----------|
    A|--------------------------------------------------------|
    E|--------------------------------------------------------|
    
    
    e|------------15--15--13--13--11--11--10--10--8--8--------|
    B|------------16--16--15--15--13--13--12--12--8--8--------|
    G|--12--12------------------------------------------------|
    D|--13--13------------------------------------10-10-------|
    A|--------------------------------------------------------|
    E|--------------------------------------------------------|
    
    
    
    
    e|-------10-11--|---------13--13---11--11--10--10---------|
    B|----13--------|-----------------------------------------|
    
  • +
    ¡Colabora con nosotros!
    Envíanos tu versión de esta canción
  • Tutorial
    Como tocar la cancion de loco de alejandro fernandez. FACIL, (original)
    6:37
  • Tutorial
    HD
    Como tocar "Loco" Guitarra (Sober)
    by Guitarfiero
    5:57

Letra de Loco
Loco
me dicen loco
porque hablo con las aves
y a los amigos
que me encuentro por la calle
no les platico
de otra cosa que de ti.
Loco
por que me ama
la mejor de las estrellas
porque se niegan a aceptar
que la mas bella
haya bajado
de tan alto para mí.
Loco
porque les digo
que me quieres con el alma
y por las tardes
cada vez que cae tu falda
voy despojandote
de todo lo demaaaas.
Loco
por esos ojos
que me dicen que me aman,
cuando amanecen
encimita de mi almohada
tras esas noches
de locura que me da-as
cuando te sueño.
Loco
por que les digo
que.........




[Loco acordes][Loco chords]
© LaCuerda.net · notícia legal · privacidade · es · en · pt · contato
DINAMICO