Cifras para Violão e Guitarra » A »Alex Campos » Soy quien soy (Tab)

Soy quien soy
Alex Campos

Letras, cifras e tablaturas para violão, guitarra, piano, ukulele e baixo

  • Am7/E
    Sólo tú me enamoras
    D9
    Me enredas con tu amor
    Am7/E
    Me enloqueces, me saturas
    Am7/E
    Vivo yo al morir en ti.
    
    
    Am7/E
    Me critican, Me señalan
    D9
    Porque sigo aún aquí
    Am7/E
    ¿Qué dirán las malas lenguas
    D9
    Cuando hables tú por mí?
    
    
    
  • E: -|X----   X
    A: O|-----   0
    D: -|---O-   4
    G: -|-O---   2
    B: -|O----   1
    E: O|-----   0
         12345
    
    
    INTRO: Am - Am6 - F - G#m - D
           Am - Am6 - Am - Am6
    
    
    Am
    Sólo tú me enamoras
    Am6
    Me enredas con tu amor
    Am6
    Me enloqueces, me saturas
    Am6
    
  • e----5-----------------------------------------5s7-7s6s5---8s10-10s9s8---
    B-8b-------------------------------1s3-3s2s1---4s6-6s5s4-----------------
    G-------5-7------------------------------------5s7-7s6s5---9s11-11s10s9--
    D-----------5h7-5------------------2s4-4s3s2-----------------------------
    A-----------------7s5h3---3--3-4-----------------------------------------
    E-----------------------3------------------------------------------------
    
    e------------------------------------------------------------------------
    B-8-8b-------------------------------------------------------------------
    G-------9s7h5--5-7-5---5-4s5-5-----------5---7s8-------8v------8---7v----
    D-------------7------7---------7-7-5-7-7---7-------7---7v----7---7-7v----
    A----------------------------------------------------6-----6-------------
    E------------------------------------------------------------------------
    
    (Esta parte PM “Palm Mute”)
    
    e-------6---------
    B-----8---8-------
    G---7-------7-----
    D-6-----------6s5-
    
  • +
    ¡Colabora con nosotros!
    Envíanos tu versión de esta canción

Letra de Soy quien soy
12345
Sólo tú me enamoras
Me enredas con tu amor
Me enloqueces, me saturas
Vivo yo al morir en ti.
Me critican
Me señalan porque sigo aún aquí
¿Qué dirán las malas lenguas cuando hables tú por mí?
Soy quien soy
Vivo en ti
Nada importa si estás aquí.
Soy quien soy, vivo en ti, nada importa si estás aquí.
Tú… tu fuerza que crece en mí, soy el hijo que vuelve a ti
Hoy nada me podrá parar, ni la fuerza de un huracán
Aunque el mundo me enfrente aquí, yo no temo porque confío en ti.
Día a día yo camino
Vivo sólo en tu vivir
Aunque digan lo que digan
Yo te escucho sólo a ti.
Me emociona cuando pienso:
“al morir, no tendré fin”
Estaré allí contigo en la gloria, sé que sí.
Soy quien soy
Vivo en ti
Nada importa si estás aquí.
Soy quien soy, vivo en ti, nada importa si estás aquí.
Tú… tu fuerza que crece en mí, soy el hijo que vuelve a ti
Hoy nada me podrá parar, ni la fuerza de un huracán
Aunque el mundo me enfrente aquí, yo no temo porque confío en ti.
Mi camino, mi destino
Estar vivo, voy seguro, creo en ti.
Aunque digan lo que diga
No me rindo, tu victoria está en mí.




[Soy quien soy acordes][Soy quien soy chords]
© LaCuerda.net · notícia legal · privacidade · es · en · pt · contato
DINAMICO