Cifras para Violão e Guitarra » A »Amaral » Kamikaze (Tab)

Kamikaze
Amaral

Letras, cifras e tablaturas para violão, guitarra, piano, ukulele e baixo

  • Intro:REm,LAm,DO,REm.2veces en tablitura:
    
     |-12~~-11-9-11~~~~~~~~~~--|---11--9--7--9-----------|
     |11-----------------------|11-----------------------|
     |-------------------------|-------------------------| x2
     |-------------------------|-------------------------|
     |-------------------------|-------------------------|
     |-------------------------|-------------------------|
    
    
    
    REm         LAm           DO
      Para auyentar la soledad
            SOL             REm
    Para espantar la decepción
                 LAm          DO
    Porque estas ansias de vivir
               SOL        REm
    No caben en una cancion
    
    
  • Dm         Am            C
      Para auyentar la soledad
            G            Dm
    Para espantar la decepcion
                 Am         C
    Porque estas ansias de vivir
               G        Dm
    No caben en una cancion
    
                Am             C
    Porque no importa el por venir
               G            Dm
    Creimos en el rock and roll
              Am
    Por eso estamos aquí
       C          G
    Equivocados o no
    
    Dm  Am  G
    Auhhh
    
  •  Intro:DO#m,SOL#m SI ,DO#m.
    
     |--12-11-9-11-~~~~~~~~~~--|---11--9-----9-----------|
     |-------------------------|----------12-------------|
     |-------------------------|11-----------------------|
     |-------------------------|-------------------------|
     |-------------------------|-------------------------|
     |-------------------------|-------------------------|
    
     |--12-11-9-11-~~~~~~~~~~--|---11--9-----9-----------|
     |9------------------------|----------12-------------|
     |-------------------------|11-----------------------|
     |-------------------------|-------------------------|
     |-------------------------|-------------------------|
     |-------------------------|-------------------------|
    
    
    
    
    
    
  • Am:  002220
    Em:  022000
    G:   320033
    D:   X00232
    Em7: 022033
    C:   X32010
    
    
    Capo traste 4
    
    
    Am             Em                G
    Para ahuyentar la soledad
    
                     D
    Para espantar la decepción
    
    Am               Em            G
    Porque estas ansias de vivir
                   D
    
  • +
    ¡Colabora con nosotros!
    Envíanos tu versión de esta canción

Letra de Kamikaze
Capo traste 4
Para ahuyentar la soledad
Para espantar la decepción
Porque estas ansias de vivir
No caben en una canción
Porque no importa el porvenir
Creímos en el Rock & Roll
Por eso estamos aquí
Equivocados o no
Auuuuuuuhhhhhh…
Auuuuuuuhhhhhh…
Y dime si sientes lo mismo
Y dime si estás conmigo
o contra mí
Porque la misma confusión
Que sientes tú la siento yo
Yo me limito a seguir
La ley de mi corazón
Y dime si sientes lo mismo
Y dime si estás conmigo o contra mí
Porque estas ansias de vivir
No caben en una canción
Porque no importa el porvenir
Creímos en el Rock & Roll
Un vuelo kamikaze a la eternidad
La estela de su paso quedará
Y dime si…




[Kamikaze acordes][Kamikaze chords]
© LaCuerda.net · notícia legal · privacidade · es · en · pt · contato
DINAMICO