Cifras para Violão e Guitarra » A »Ases Falsos » Estudiar y trabajar (Tab)

Estudiar y trabajar
Ases Falsos

Letras, cifras e tablaturas para violão, guitarra, piano, ukulele e baixo

  • e-----------------------------
    B-----------------------------
    G-----------------------------
    D-----------------------------   (x3)
    A--5-3-1---1-1-3-0------------
    E------------------1-3---3----
    
    
    e-----------------------------
    B-----------------------------
    G-----------------------------
    D-----------------0-3-0-------
    A--5--3---1-0-1-3-------------
    E-----------------------1-3--3
    
    
    
    
           Gm           A#
    Yo no quiero estudiar
    
  • Gm:355333
    A#:688766 / Para la parte de ".. perro Aysenino" recomiendo A#:x13331
    Dm7:x57565
    D#: x68886
    Cm7:x35343
    F: 133211
    C/G: 332010
    G7: 320001
    
    
    Intro:
    
    e-----------------------------
    B-----------------------------
    G-----------------------------
    D-----------------------------
    A--5-3-1---1-1-3-0------------
    E------------------1-3---3----
    
    e-----------------------------
    
  • e-----------------------------------------------------------------
    B-----------------------------------------------------------------
    G--17-19-----19-19-19---17-17-------------------------------------
    D--^^--------------------------19-19---15-15----------------------
    A---------------------------------------------17-17---------------
    E-----------------------------------------------------------------
    
    e-----------------------------------------------------------------
    B-----------------------------------------------------------------
    G-----------------------------------------------------------------
    D--20-20-20----19-19---17-17---15-15------------------------------
    A-------------------------------------13-13-----------------------
    E-----------------------------------------------------------------
    
    e-----------------------------------------------------------------------
    B-----------------------------------------------------------------------
    G--19-19-19---17-17------------------------------------17---------------
    D---------------------19-19---15-15----------15-17-19-----19---20-19-17-
    A------------------------------------17-17------------------------------
    E-----------------------------------------------------------------------
    
  • +
    ¡Colabora con nosotros!
    Envíanos tu versión de esta canción

Letra de Estudiar y trabajar
Yo no quiero estudiar
Me aburre de verdad
Sólo quiero trabajar
Ganar plata haciendo lo que a mí me sale bien
En más de alguna ocasión
Me acusaste de flojear
Puede que tengas razón
Pero cada vez que tú te vas de acá
Yo me pongo a correr como un perro ayseninoooo
Será que es diferente ser dueño de uno mismo
Y doy cara al profesor
Que no entrega el corazón
Que te dicta sin pensar
Sin mirar la realidad
Que escapa de su programa
Dependiendo donde fue
Fabricado tu cartón
Se te pide tu papel
Bien te enseñan a mandar o a ser un empleado fiel
No le quiero trabajar
A un cobarde ganador
Que en su vida se leyó
Algún libro porque sí
Por el placer de descubrir
No soy y nunca seré un artista nacional
No te voy a revelar
Un frágil mundo interior
Sólo te voy a sacudir
Yo no quiero estudiar
Me aburre de verdad
Sólo quiero trabajar
Ganar plata haciendo lo que a mí me sale bien.....
temón!!!




[Estudiar y trabajar acordes][Estudiar y trabajar chords]
© LaCuerda.net · notícia legal · privacidade · es · en · pt · contato
DINAMICO