Cifras para Violão e Guitarra » A »Attaque 77 » Plaza de perros (Tab)

Plaza de perros
Attaque 77

Letras, cifras e tablaturas para violão, guitarra, piano, ukulele e baixo

  • intro: MI LA DO#
    
    MI        LA      DO#      MI        LA      DO#
    voy a la plaza de perros, voy a despejarme espero
    RE              LA  FA#         SI             LA
    el dia en la ciudad   fue un infierno y la verdad
           MI         FA#
    pesa mucho tanta sociedad
    MI          LA    DO#     MI      LA          DO#
    Voy a la plaza de perros, voy a reencontrarme creo
    RE                LA   FA#        SI        LA
    ya los puedo escuchar, los niños rien al jugar.
          MI            FA#
    y me vuelo de esta realidad.
    RE                      LA
    Bien lejos, donde ayer fui niño tambien,
    FA#                         DO#         SI
    no es inmadurez, es que creciendo, la inocencia se me va
    
    MI        LA      DO#     MI          LA    DO#
    
  • Intro [E A C#] x2 primero empieza solo el punteo
    y al toke entra la otra guitarra
    
    -------------------------------------------
    -5-5-5-4-5-5-5-4---------------------------
    -------------------------------------------
    -------------------------------------------
    -------------------------------------------
    -------------------------------------------
    
    
    E           A        C#
    Voy a la plaza de perros
    Voy a despejarme espero
    D               A
    El dia en la ciudad
    F#           B
    fue un infierno y la verdad
    A     E           F#
    pesa mucho tanta sociedad
    
  • INTRO:    MI       LA               DO#
           1--0-0-0-0-0-0-0-0-0-0-0-0-0-0-0-0-0-0-0-0-0-0-0--
           2--5-5-5-4-4-5-5-5-5-5-5-4-4-5-5-5-5-5-5-4-4-5-5--
           3-------------------------------------------------
           4-------------------------------------------------
           5-------------------------------------------------
           6-------------------------------------------------
    
    
    
    SOLO:     RE           LA         FA#          DO#
           1--------------------------------------------
           2--------------------------------------------
           3-----------------------------6-6---6-4------
           4---4-4-6-7-6-4-7-----------7-----------7-6-- X2
           5-----------------7-7---7-7------------------
           6--------------------------------------------
    
               SI
           1------------------------------------------
    
  • +
    ¡Colabora con nosotros!
    Envíanos tu versión de esta canción

Letra de Plaza de perros
voy a la plaza de perros, voy a despejarme espero
el dia en la ciudad fue un infierno y la verdad
pesa mucho tanta sociedad
Voy a la plaza de perros, voy a reencontrarme creo
ya los puedo escuchar, los niños rien al jugar.
y me vuelo de esta realidad.
Bien lejos, donde ayer fui niño tambien,
no es inmadurez, es que creciendo, la inocencia se me va
Voy a la plaza de perros, Voy para verte de nuevo
ahi donde una vez, me prometiste eternidad.
Y juramos nunca mas pelear.
Mi vista se nublo, lleno de emocion, y me senti feliz
cuando dijiste...soy tu karma.
punteo: re la fa# do#
el dia en la ciudad fue un infierno y la verdad
pesa mucho tanta sociedad
Ya se largo a llover, pronto corramos a casa




[Plaza de perros acordes][Plaza de perros chords]
© LaCuerda.net · notícia legal · privacidade · es · en · pt · contato
DINAMICO