Cifras para Violão e Guitarra » A »Attaque 77 » Yo te amo (Tab)

Yo te amo
Attaque 77

Letras, cifras e tablaturas para violão, guitarra, piano, ukulele e baixo

  • B C# B C# B D# C# D# B/ X2
    
    B                D#                C# D# B
    Estoy enamorado, yo estoy conmovido,
    B                       D#            C# D# B      B C# B C# B
    yo te quiero tanto tanto, tanto tanto, mucho mucho
    D# C# D# B
        mucho mucho
    
    
    Yo estoy enamorado, enamorado de tu culo
    quiero chuparte la concha, quiero romperte el culo,    romperte el culo
    
    B                     D#            C# D# B                        /
    Yo te amo, yo te amo, yo te amo, yo te amo, /
     B                     D#            C# D# B/ ESTRIBILLO
    yo te amo, yo te amo, yo te amo, yo te amo! /
    
    INTRO X2
    
    
  • Intro: B    C#-B-C#-B  D#   C#-C#-D#-C#
    
    B
    En el ? enamorado
    D#       C#-C#-D#-C#
    Yo estoy confundido
    B
    Yo te quiero tanto, tanto
    D#            C#-C#-D#-C#
    tanto, tanto, mucho, mucho
    
    B    C#-B-C#-B  D#   C#-C#-D#-C#
                         mucho, mucho!
    
    B    C#-B-C#-B  D#   C#-C#-D#-C#
                         mucho, mucho!
    
    
    B
    Yo estoy enamorado
    
  • Mi primera tab y no se tocar!!!
    enjoy!!!
    
    intro /riff 1
    |-------------------------------------|
    |-------------------------------------|
    |--------------------9-9-9-9-7-7-9-7--|
    |--------------------7-7-7-7-5-5-7-5--| x2
    |--9-9-9-9-12-9-12-9------------------|    9
    |--7-7-7-7-10-7-10-7------------------|    7 se toca mas veces
    
    
    verse /riff 2
    |-------------------------------------|
    |-------------------------------------|
    |-------------------------9-9-7-7-----|
    |-------------------------7-7-5-5-----| x2
    |--9-----------12-12-12-12------------|
    |--7(let ring)-10-10-10-10------------|
                   (-------muted-------)
    
    
    solo!!! (batalle mucho para sacarlo aunque esta muy facil)
    
    |-----------------------------------------------|
    |-----------------------------------------------|
    |--------5-7-7-5--------------5-7-7-5-4-5-------|
    |--5-7-9---------9-7----5-7-9-------------7-5---|
    |-----------------------------------------------|
    |-----------------------------------------------|
    
    
    |------------
  • +
    ¡Colabora con nosotros!
    Envíanos tu versión de esta canción

Letra de Yo te amo
En el ? enamorado
Yo estoy confundido
Yo te quiero tanto, tanto
tanto, tanto, mucho, mucho
mucho, mucho!
mucho, mucho!
Yo estoy enamorado
Enamorado de tu culo
Quiero chuparte la concha
Quiero romperte el culo
romperte el culo!
romperte el culo!
Yo te amo, yo te amo
Yo te amo, yo te amo
Yo te amo, yo te amo
Yo te amo, yo te amo
Y así sigue la canción. Yo no seguí por que no
entendí mas yo que decia, pero bueno, eso es
basicamente toda la cancion. Ojala k les sirva
Aguante Attaque!!




[Yo te amo acordes][Yo te amo chords]
© LaCuerda.net · notícia legal · privacidade · es · en · pt · contato
DINAMICO