Cifras para Violão e Guitarra » C »Camila » Nanga ti feo (Tab)

Nanga ti feo
Camila

Letras, cifras e tablaturas para violão, guitarra, piano, ukulele e baixo

  •    Gm      Cm     Gm       Gm      Cm    Gm
    e|---------------------3-|---------------------3-|
    B|-3-----3h4-4h6-3-------|-3-----3h4-4h6-3-------|
    G|-----3-----------3-----|-------3---------3-----|
    D|---5---------------5---|-----5-------------5---|
    A|---------3-------------|---5-----3-------------|
    E|-3-------------3-------|-3-------------3-------|
    
    
          Gm     Cm      Gm
    Paqueni cabena espadagüime
          Gm     Cm      Gm
    Paqueni cabena neshalulu
          Cm                F
    Jushila kar de nanga espidolo
          Cm                D7
    Jushila kar de nanga espidolo
    
              Cm                Gm
    Nanga ti feo, ti feo ninameni
    
  • Am=LAmenor
    F6---------------------13230X-----------------
    G=SOL
    Esus-------------------002220-----------------
    C6---------------------012230----------------
    
    EN 2 NOTAS MAYORES.
    
    EN ZAPOTECO
    (NATURAL DE MÉXICO)
    
          Am      F6      Am
    Paqueni cabena espadagüime
          Am     F6      Am
    Paqueni cabena neshalulu
          F6               G
    Jushila ka  de nanga espidolo
          Am                Esus
    Jushila ka  de nanga espidolo
    
    
  •    Em        Am        Em
    e|-----------------------------0--------|
    B|-0----------1---1h3--0---------0------|
    G|-------0-----------------0-------0----|x2
    D|-----2--------2--------2---2----------|
    A|---2--------0-------------------------|
    E|-0-------------------0----------------|
    
    letra 1
       Em        Am        Em
    e|-----------------------------0--------|
    B|-0----------1---1h3--0---------0------|
    G|-------0-----------------0-------0----|
    D|-----2--------2--------2---2----------|x2
    A|---2--------0-------------------------|
    E|-0-------------------0----------------|
    
    letra 2
       Am       Em      B7      B7
    e|------0---------------2--------2--|
    
  •    Em        Am        Em
    e|-----------------------------0--------|
    B|-0----------1---1h3--0---------0------|
    G|-------0-----------------0-------0----|
    D|-----2--------2--------2---2----------|
    A|---2--------0-------------------------|
    E|-0-------------------0----------------|
    
    
       Em        Am        Em
    e|-----------------------------0--------|
     B|-0----------1---1h3--0----------------|
    G|-------0-----------------0------------|
    D|-----2--------2--------2---2----------|
    A|---2--------0-------------------------|
    E|-0-------------------0----------------|
    
    
         Em     Am       Em
    Paqueni cabena espadagüime
    
  • +
    ¡Colabora con nosotros!
    Envíanos tu versión de esta canción

Letra de Nanga ti feo
Paqueni cabena espadagüime
Paqueni cabena neshalulu
Jushila kar de nanga espidolo
Jushila kar de nanga espidolo
Nanga ti feo, ti feo ninameni
Neguidubi das indommen
Neseshedanameni
Nanga ti feo, ti feo ninameni
Neguidubi das indommen
Neseshedanameni
Si alguien te habla de mi, mi negrita
Si alguien te habla de mi en tu presencia
Diles que yo soy tu negro santo
Diles que yo soy tu negro santo
Yo soy un feo, un feo que sabe amar
Con todo su corazon y que no te ha de olvidar
Yo soy un feo, un feo que sabe amar
Con todo su corazon y que no te ha de olvidar
Paqueni cabena espadagüime
Paqueni cabena neshalulu
Jushila kar de nanga espidolo
Jushila kar de nanga espidolo
Nanga ti feo, ti feo ninameni
Neguidubi das indommen
Neseshedanameni
Nanga ti feo, ti feo ninameni
Neguidubi das indommen
Neseshedanameni
*************************************************
Aqui estoy de nuevo....!
Esta canción la escuche de una muy buena amiga
y me gusta mucho por es que la estoy subiendo.
Ademas se asemeja mucho a mi historia con esa amiga.
Para ti Eliana.




[Nanga ti feo acordes][Nanga ti feo chords]
© LaCuerda.net · notícia legal · privacidade · es · en · pt · contato
DINAMICO