Cifras para Violão e Guitarra » C »Carlitos Mona Jiménez » Te quise mal (Tab)

Te quise mal
Carlitos Mona Jiménez

Letras, cifras e tablaturas para violão, guitarra, piano, ukulele e baixo

  •   F7              C
    
    e------1------1--1----0------0---0---|
    B-----------1---1----------2----2----|  X2
    G---------2----2---------0-----0-----|
    D------------------------------------|
    A------3--------------3--------------|
    E------------------------------------|
    
    
    e---------------------------------------------------------------------|
    B----888---888-666-555---------------666---666-555-333----------------|
    G----------------------345-457-------------------------234-345--------|
    D---------------------------------------------------------------------|
    A---------------------------------------------------------------------|
    E---------------------------------------------------------------------|
    
    
    
                             C
    
  •                          C
    Tu por buscar un nuevo amor
     F        G             C
    nunca pensaste en mi dolor
    tu por vivir una aventura
    A#                    A
    no imaginaste cuanto dura.
    
    Dm                      F
    Y a la vuelta de la esquina
    G                     C
    me esperaba una traición
     Am                 Bm  Dm  E
    con la moneda que pagaste
                         Am
    la vida hoy te la cobró.
    
                            F
    Y a la vuelta de la esquina
    G                   C
    
  • +
    ¡Colabora con nosotros!
    Envíanos tu versión de esta canción

Letra de Te quise mal
Tu por buscar un nuevo amor
nunca pensaste en mi dolor
tu por buscar una aventura
no imaginaste cuanto dura
y a la vuelta de la esquina
me esperaba una traicion
con la moneda que pagaste
la vida hoy te la cobro
y a la vuelta de la esquina
te han roto el corazon
cara a cara con tu espejo
hoy se refleja tu traicion
ESTRIBILLO
Te quise mal
te quise mal y ahora tu lo pagaras
te quise mal por haberte amado mas
no entiendo como fui tan blando para amar
tu no supiste valorar
que mi amor fue de verdad
es tan dificil
pero ya nada sera igual
y a la vueta de la esquina
tu vienes a pedir perdon
tu dices que te equivocaste
que te arrepientes de tu error
y a la vuelta de la esquina
tu juras que nada cambio
tu comprendiste que conmigo
viviste el verdadero amor
ESTRIBILLO
Y a la vuelta de la esquina
tu pides hoy mi comprension
tu engaño duele demasiado
i herida aun no se cerro
para volver a comenzar
no me tendrias que fallar
como te puedo yo creer
despues de tu infidelidad




[Te quise mal acordes][Te quise mal chords]
© LaCuerda.net · notícia legal · privacidade · es · en · pt · contato
DINAMICO