Tablatura de Celia Cruz: Te busco
Celia Cruz  corregir
desconocido
 Transcripción dedicada a la memoria de Celia Cruz
 Por: Luis Alfredo Jimenez Salazar
 Desde Colombia

"Cualquier duda o sugerencia por favor comunicarla a luchito_jimenez@hotmail.com"

Intro
     |----------------------------------|
     |----------------------------------|
     |----------------------------------| 
  A1 |----------------------------------| 
     |--0-2-4-5-------5-2-------4-----2-|
     |------------------------4-----4---|

     |----------------------------------|
     |----------------------------------|
     |----------------------------------| 
     |----------------------------------| 
     |--0-2-4-5-------5-2-------4-----2-|
     |------------------------4-----4---|

     |------------|
     |------------|
A2 |------------| |------------| D-A7-Bm7 |--0-2-4-----| |------------| "La parte A2 se repite 2 veces"
D A7 Bm7 Al cielo una mirada larga
Em A7 Buscando un poco de mi vida
F#m7 Bm7 Mis estrellas no responden
Em A7 Para alumbrarme hacia tu risa Olas que esfuman de mis ojos A una legión de tus recuerdos Me roban formas de tu rostro Dejando arena en el silencio CORO
D F#m7 Bm7 Te busco perdida entre sueños
Em El ruido de la gente
A7 envuélvelo en un velo
D F#m7 Bm7 Te busco volando en el cielo
Em A7 El viento te ha llevado como un pañuelo viejo
F#m Bm7 Y no hago más que rebuscar
Em A7 Paisajes conocidos
F#m7 Bm7 Em A2 en lugares tan extraños, que no puedo dar contigo En cualquier huella te persigo (voy tras de ti) En una sombra te dibujo (al recordar) Huellas y sombras que se pierden (de la soledad) La suerte no vino conmigo CORO SOLO CORO
D .....Y te busco _______________________________________________ NOTAS Y ACLARACIONES 1-) A excepción del coro entre cada verso se puede hacer el bajo: |------------| |------------| |------------| |------------| |--0-2-4-----| |------------| 2-) Para los que no sepan el arpegio, hago aqui la parte A2 para que se guien: |--------------2------------0---------------2---| |-----------------3-----------2-----------3-----| |-----------2------------0--------------2-------| |---------0-------------------------------------| |--0-2-4--------------0------------2------------| |-----------------------------------------------| 3-) El solo se acompaña con A2.
Este arquivo é o trabalho do seu trnascritor e representa sua interpretação pessoal da música. O material contido nesta página é para uso privado exclusivo, portanto, é proibida sua reprodução ou retransmissão, bem como seu uso para fins comerciais.
© LaCuerda.net · notícia legal · privacidade · es · en · pt · contato