Cifras para Violão e Guitarra » C »Charly García » Me siento mucho mejor (Tab)

Me siento mucho mejor
Charly García

Letras, cifras e tablaturas para violão, guitarra, piano, ukulele e baixo

  • A
    No razonar, desaparecer
                         E/Ab
    cuando tenías que estar
                     F#m B7
    te echaste a correr
                      A
    lo que hiciste en mí
                 D A/C# Bm
    no tiene perdón
                    A                 E
    y yo sé que me siento mucho más fuerte
              D G
    sin tu amor.
    
    
    
    Mucho tiempo atrás
    me hiciste sentir
    que nuestro amor era más
    
  • e|-----------------------------|
    B|-14--12--14--15--14--12--14--| x 4
    G|-----------------------------|
    D|-----------------------------|
    A|-----------------------------|
    E|-----------------------------|
    
    A          (A)
    No razonar, desaparecer
                         E
    cuando tenías que estar
                     F#m B7
    te echaste a correr
                      A
    lo que hiciste en mí
                 D   Bm
    no tiene perdón
                    A                 E
    y yo sé que me siento mucho más fuerte
              D G
    
  • ----------------------------------------------------------------
    ------------------------------------------------organo----------
    ----------------------------------------------------------------
    -----7--7-7--7-7--5--7------------------------------------------
    -----7--7-7--7-7--5--7------------------------------------------
    --0--5--5-5--5-5--3--5-55-55-55-55-55-55-55-55-55-55-55-55-55-...
    organo
    ---11-9-11-12-11-9-11-----11-9-11-12-11-9-11-----------------
    -------------------------------------------------------------
    -------------------------------------------------------------
    -------------------------------------------------------------
    -------------------------------------------------------------
    -------------------------------------------------------------
    
    riff 1
    ------------------------------------------------------
    ----A-----------------E-------------------------------
    ------------------------------------------------------
    ---7-7-------7-7---7-2-2------------------------------
    ---7-7-------7-7---7-2-2------------------------------
    
  • Intro: La
    
    G|----------------------------------
    D|----------------------------------
    A|--7-7-7-7-7h-5--------------------
    E|----------------------------------
    
    Versos (no razonar..)
    
    G|----------------------------------
    D|----7--7-----6-7-7----------------
    A|---------7-9-------7h9------------
    E|----------------------------------
    
    Asi toda la parte de la
    
    Despues (..que estar..)cambia:
    
            E/Ab           F#m
    G|------------------|----------------------
    D|--6--6-6---6--6-6-|--4-------------------
    A|------------------|-----7-5-4----4-5-7---
    E|------------------|------------7---------
    
    En la parte del f#m fíjense bien y escúchenlo bien
    Fíjense los tiempos.. queda buenoo..
    
    Despues vuelve a La
    
    G|----------------------------------
    D|----7--7-----6-7-7----------------
    A|---------7-9-------7h9------------
    E|----------------------------------
    
         D   A/C#     Bm
    G|----------------------------
    D|-----------------2----------
    A|--5--5-4--4-2--2------------
    E|----------------------------
    
  • Estuve viendo los otros 2 tabs de bajo de esta canción que están en la pagina.
    Y noté que tienen un par de errores y no están completos. 
    Este tab es continuo, o sea, no tienen que 'volver arriba para tocar el verso' 
    toda la canción esta escrita y completa.
    
    Intro
    
    G-------------
    D-------------
    A---77s0------
    E-------------
    
    G-------------------------------------
    D--7-7-----6-7--7-----7--7-----6-7----
    A------7-9--------7-7------7-9-----7--
    E-------------------------------------
    
    Verso 1° Estrofa: 'No razonar, desaparecer...'
    
    G---------------------------------------
    D-7-7-----6-7-7-----7-7-----6-7-7---7---
    A-----7-9-------7-7-----7-9-------7-----
    E---------------------------------------
    
    '...estar, te echaste a correr...'
    
    G----------------------------------
    D-6-66-6-66------------------------
    A-----------7-9-7----0-------------
    E-----------------10---7-7-7h5-7---
    
    '...mi, no tiene perdón...'
    
    G----------------------------------
    D-7-7-----6-7--
  • ARMONICA EN C
    
    Intro:
     6     6  6 (5)    4  4  4  4  4  4  4  4  4  4
     5 (4) 5 (5) 5 (4) 5
     5 (4) 5 (5) 5 (4) 5
     5 (4) 5 (5) 5 (4) 5
     5 (4) 5 (5) 5 (4) 5
    
    No reaccionar
     8 (8) 8  7
    desaparecer
     8 (8) 8  7 (8) 7
    cuando tenias que estar
     8  8  8  8  8 (8)   (7)(6) 6
    te hechaste a correr
     8 (8) 8  7 (8)    8 (8) 7
    
    lo que hiciste en mi
     8  8  8  8  7
    no tiene perdon
     8 (8) 8  7 (8)    7
    y ahora se que me siento
     7  7  7 (8) 7     8  8
    mucho mas fuerte sin tu amor
     8 (9) 8  8 (8)    8  8 (8) 7
    
     5 (4) 5 (5) 5 (4) 5
     5 (4) 5 (5) 5 (4) 5
    
    Mucho tiempo atras
     8  8 (8) 8  7
    me hiciste sentir
     8 (8) 8  7 (8)
    que nuestro amor era mas
     8  8  8  8  8  9  9 (8)
    y de esa forma vivir
     8  8  7 (8) 8  7 (8)    7
    
    No se mas quien soy
     8  8 (8) 8  7
    de que te reis
     8 (8) 8  7 (8) 7
    y ahora se que me siento
     7  7  7 (8) 7     8  8
    mucho mas fuerte sin tu amor
     8 (9) 8  8 (8)    8 (8)(8) 7
    
    Inter: (Xilofhon)
     5 (4) 5 (5) 5 (4) 5
     5 (4) 5 (5) 5 (4) 5
    
     6 (6)(6)(6)(6)(6) 6
     6 (6)(6)(6)(6)(6) 6
     6 (6)(6)(6)(6
  • +
    ¡Colabora con nosotros!
    Envíanos tu versión de esta canción

Letra de Me siento mucho mejor
No razonar, desaparecer
E/Ab
cuando tenías que estar
te echaste a correr
lo que hiciste en mí
no tiene perdón
y yo sé que me siento mucho más fuerte
sin tu amor.
Mucho tiempo atrás
me hiciste sentir
que nuestro amor era más
y de esa forma vivir
no sé más quién soy
de qué te reís
y ahora sé que me siento mucho más fuerte
sin tu amor.
No sé más que hacer
no sé qué decir
cuando tenías que estar
te echaste a reír
lo que hiciste en mí
no tiene perdón
y ahora sé que me siento mucho más fuerte
sin tu amor
y yo sé que me siento mucho más fuerte
sin tu amor
oh sin tu amor.




[Me siento mucho mejor acordes][Me siento mucho mejor chords]
© LaCuerda.net · notícia legal · privacidade · es · en · pt · contato
DINAMICO