Cifras para Violão e Guitarra » C »Coros Unidos » Glorioso Encuentro (Tab)

Glorioso Encuentro
Coros Unidos

Letras, cifras e tablaturas para violão, guitarra, piano, ukulele e baixo

  • DO             FA              DO
    Se que un lugar me espera mas alla
                  FA                  SOL
    donde por siempre alabare a mi salvador
    LAm        FA           DO
    donde la muerte y el rencor ahí no entraran
    REm           SOL             DO
    por que mi cristo la victoria me dará
    
     DO
    Ya no me importa sufrir
    ya no me importa lo que el hombre
    FA     LAm    REm
    pueda hacerme señor
    SOL
    si a mi lado tu vas
             DO
    confiado estoy no temeré
    quiero llegar a aquel lugar
            FA   LAm   REm
    
  • SI A MI LA.....
    4.-------------------------------------------------------------
    3.-3-2-5-3---5-------------------------------------------------
    2.---------0---3-2-5-3---5-----------------------------5-3-2-0-
    1.---------------------0---1-0-3-1-5-3-7-5-8-7-5-3-1-0---------
    
    4.--------------------------------------------------
    3.-2-3-5--------------------------------------------
    2.------0-2-3-5-------------------------------------
    1.--------------0------------------------------------
    
    
    quiero llegar a....
    4.--------------------------------------------------------
    3.-2-3-5-3---5--------------------------------------------
    2.---------0---3-2-5-3---5-----------------5--------------
    1.---------------------0---1-0-3-1-5-3-1-0---0-1-3-5555555
    
    en lo poco haz sido fiel
    4.-------------------------
    
  • +
    ¡Colabora con nosotros!
    Envíanos tu versión de esta canción

Letra de Glorioso Encuentro
Se que un lugar me espera mas alla
donde por siempre alabare a mi salvador
donde la muerte y el rencor ahí no entraran
por que mi cristo la victoria me dará
Ya no me importa sufrir
ya no me importa lo que el hombre
pueda hacerme señor
si a mi lado tu vas
confiado estoy no temeré
quiero llegar a aquel lugar
y poder escuchar tu tierna voz
en lo poco haz sido fiel
sobre mucho te pondré
entra siervo fiel
Glorioso encuentro será para mi
besar las manos de quien murió por mi
donde nada impedirá que yo alabe al señor
junto a los ángeles alabare a mi salvador
siervo fiel siervo fiel..
todos esperamos ese glorioso encuentro con el señor
espero que esta alabanza les sea de bendición
saludos al conjunto de alabanza y adoracion salmo 150




[Glorioso Encuentro acordes][Glorioso Encuentro chords]
© LaCuerda.net · notícia legal · privacidade · es · en · pt · contato
DINAMICO