Cifras para Violão e Guitarra » D »Danilo Montero » Eres Todopoderoso (Tab)

Eres Todopoderoso
Danilo Montero

Letras, cifras e tablaturas para violão, guitarra, piano, ukulele e baixo

  • INTRO:  D - A/C# - Am/C -  Bm
    
    Bm                  G
    La única Razón de mi adoración
    D             A
    Eres tú mi Jesús
       Bm             G
    El único motivo para vivir
    D              A
    Eres tú Mi Señor
    
          Em
    Mi única verdad esta en Ti
           A
    Eres mi luz y mi salvación
          Em
    Mi único amor eres Tu Señor
           A
    Y por siempre te alabaré
    
    
  • INTRO: Bm D G    F#m G    Bm  A  X2
    
    VERSO
        Bm                 G
    La única razón de mi adoración
    D              F#m
    Eres Tú, mi Jesús
        Bm            G
    El único motivo para vivir
    D              A
    Eres Tú, mi Señor
    
    PRE-CORO:
    
    *NOTAS BASS: G G G  F# F#  G G G  B B   A A A  A A   A A A  B B
                 G G G  F# F#  G G G  B B   A A A  A A   A A A A
    
    
          G      D/F#  G
    Mi única verdad está en Ti
    
  • B
    |e----------------2----------------------|
    |B-------3-----3-----3-----3-------------|
    |G--2/4-----4-----------4-----4--|4------|
    |D---------------------------------------|
    |A---------------------------------------|
    |E---------------------------------------|
    
      Bm                  G
    La única Razón de mi adoración
    D             A
    Eres tú mi Jesús
       Bm             G
    El único motivo para vivir
    D              A
    Eres tú Mi Señor
    
          Bm          G
    Mi única verdad esta en Ti
             D              A
    
  • Bm-G-D-A
    e|--------------------------------
    b|--------------------------------
    g|--------7------11------7--------
    D|----7-9---9-12----12-9---9-7-9--  (x2)
    A|--------------------------------
    E|--------------------------------
    
    El rasgueo para el verso con las notas Bm y G se hacen tapando
    notas (x) o sea
    después de tocar una nota topas las cuerdas con la mano abierta
    y para D y A es rápida.
    
    Verso 1:
          Bm     G       D     A
    La única razón de mi adoración
    e|--2x---3x------2-2--0x-
    b|--3x---0x------3-3--2x-
    g|--4x---0x------2-2--2x-  los signos de admiración te indican el
    D|--4x---0x------0-0--2x-  rasgueo (!:rasgueo hacia abajo y ¡:ras_
    
  •                          A5   B5
    e ----------------------|---------
    B -----3---3h7---3---3--|---------
    G -2h4---4---------4---4|-2---4---
    D ----------------------|-2---4---
    A ----------------------|-0---2---
    E ----------------------|---------
    
                             B5
    e ---------------------|---------
    B -----3---3h7-3---3---|---------
    G -2h4---4-------4---4-|-4-4-----
    D ---------------------|-4-4-----
    A ---------------------|-2-4-----
    E ---------------------|---------
    
    
    Explicación:
    Haces 2 veces el punteo.
    Pero al final de la
    
  • Bm-G-D-A
    e|-----------------2-----------------
    b|-----------2-----------------------
    g|--------2-4--4-4-----2-4-2---------
    D|------------- --------------------- (x2)
    A|-----------------------------------
    E|-----------------------------------
    
    Verso 1:
          Bm     G       D     A
    La única razón de mi adoración
    e|--2x---3x------2-2--0x-
    b|--3x---0x------3-3--2x-
    g|--4x---0x------2-2--2x-
    D|--4x---0x------0-0--2x-  rasgueo
    A|--2x---2x------0-0--0x
    E|--2x---3x------0-0--0x-
    
    El mismo rasgeo se repite en todo el verso 1.
    
    
  • Bm-G-D-A...y al mismo tiempo...
    
    e ---------------2---3---2----------------------
    B ----------3-----------------3-----------------
    G-------4--------------------------4---7--4-4-0-   2X
    D ----------------------------------------------
    A ----------------------------------------------
    E ----------------------------------------------
    
    Verso:
    
       Bm                 G         D             A
    La única razón de mi adoración, eres Tú mi Jesús
       Bm             G         D             A
    El único motivo para vivir, eres Tú mi Señor
          Bm          G                  D              A
    Mi única verdad está en Ti, eres mi luz y mi salvación
          Bm           G                D              A
    Mi único amor eres Tú Señor, y por siempre te alabaré.
    
    
  •     Aqui les va esta rola, hice algunas modificaciones y espero que
    la puedan adaptar;se oye muy padre y ojalá les guste... va...
    
    
    ::Intro::
    
    E |-----------3---5------------------------------3---5--------------
    A |-2---2--------------2---2---------2---2---------------2----2-----
    D |-----------------------------------------------------------------
    G |-----------------------------------------------------------------
    B |-----------------------------------------------------------------
    
    
    
    ::Verso::
    
    E |--------------------5----3---3------------------7---5---5---------------------5---3---3------------------7---5---5---
    A |---2----2----2--------------------5---5---5------------------2---2---2--------------------5---5---5------------------
    D |---------------------------------------------------------------------------------------------------------------------
    G |----------------------------------------------------------------------------------------------------------------
  •    SIm                   SOL    RE             LA
    -B F#F#F# F#F#  F#  F# F# G G    F#F# F# E   D E
    la u nica razon de mi adoracion ,eres tu mi señor
        SIm           SOL         RE            LA
    -B F#F#F# F#F#F# F#F# G G     F#F# F# A   B A
    el u nico motivo para vivir , eres tu mi señor
         SIm          SOL              RE               LA
    B   *C#*D  B  B *C#*D B  B  B B  B   A  A *D *D  *D *C#
    mi u nica verdad esta en ti eres mi luz y mi sal vacion
         SIm           SOL                  RE             LA
     B  *C*D  B B  B*C# D  B  A   B  B   A   A  A  *D*D *D *C#
    mi u nico amor eres tu señor, y por siempre te  a la ba re
    coro:
          SIm      SOL        RE               LA
    B *C# *D B B*C#*D B  B*C# *D  *D   *C# B B  A
    e res todo poderoso ,eres grande y majestuoso
          SIm         SOL                RE     LA
    B *C# *D  B  B*C#*D  B    B   B    A  A  *D*D *C# *D *C# B
    e res fuerte invencible , y no hay nadie como tu  uh  uh uh
    -B es una octava abajo
    * es una octava arriba
    hecho por
  • +
    ¡Colabora con nosotros!
    Envíanos tu versión de esta canción

Letra de Eres Todopoderoso
La única Razón de mi adoración
Eres tú mi Jesús
El único motivo para vivir
Eres tú Mi Señor
Mi única verdad esta en Ti
Eres mi luz y mi salvación
Mi único amor eres Tu Señor
Y por siempre te alabaré
Tu Eres Todo poderoso
Eres Grande y Majestuoso
Eres Fuerte e Invencible
Y no hay nadie como Tú
Eres Todo poderoso
Eres Grande y Majestuoso
Eres Fuerte e Invencible
Y no hay nadie como Tú




[Eres Todopoderoso acordes][Eres Todopoderoso chords]
© LaCuerda.net · notícia legal · privacidade · es · en · pt · contato
DINAMICO