Cifras para Violão e Guitarra » D »Danny Berríos » El hombre de fuego (Tab)

El hombre de fuego
Danny Berríos

Letras, cifras e tablaturas para violão, guitarra, piano, ukulele e baixo

  • Aqui esta la tablatura
    
    e--8--7--8--------5--7--8--7--8--------------------------
    b-----------5-----------------------------6-8-8/10-8-10--
    g--------------------------------5----7-9----------------
    d--------------------------------------------------------
    a--------------------------------------------------------
    e--------------------------------------------------------
    
    e--------------------------------------------------------
    b-------------------5--8-6-5-5/6-5-----------------------
    g-5--7-7/9----5--7------------------7--5-4---------------
    d------------------------------------------7-7--7/9--7--6
    a--------------------------------------------------------
    e--------------------------------------------------------
    
    
    Tienes que escuchar la cancion para sacarla.
    
    (Toda la canción, es en los acordes Am, E y Dm. Y con esta
    introducción Te va a salir super bien)
    
    
    Siento la gloria de dios,
    Inundo este lugar si tú también lo sientes comienza ahora a glorificar,
    veo al pueblo alabando y pued
  • +
    ¡Colabora con nosotros!
    Envíanos tu versión de esta canción






[El hombre de fuego acordes][El hombre de fuego chords]
© LaCuerda.net · notícia legal · privacidade · es · en · pt · contato
DINAMICO