Cifras para Violão e Guitarra » D »Divididos » Spaghetti del rock (Tab)

Spaghetti del rock
Divididos

Letras, cifras e tablaturas para violão, guitarra, piano, ukulele e baixo

  • E    E/Eb   C#m    B      A       B B7sus4 B
    Pistones de un curioso motor de humanidad
    E    E/Eb   C#m    B      A       B B7sus4 B
    resortes viejos de este amor que va.
    E    E/Eb   C#m          B      A       B B7sus4 B
    Memoria hostil de un tiempo de paz sin paz.
    E  E/Eb   C#m    B   A       B B7sus4 B
    Narices frías de una noche atrás.
    
     A         B B7sus4 B
    Besos por celular
    A         B B7sus4 B
    las momias de este amor
    A           B      A       E
    piden el actor de lo que fui.
    
    E   E/Eb  C#m    B          A      B B7sus4 B
    Pantalla de la muerte y de la canción,
    E    E/Eb   C#m    B      A           B B7sus4 B
    proyectos de un nuevo spaghetti del rock.
    
  • MI           DO#m        LA           SI
    Pistones  de un curioso motor de humanidad
    MI           DO#m      LA      SI
    resortes viejos de este amor que va.
    MI          DO#m                  LA      SI
    Memoria hostil de un tiempo de paz sin paz.
    MI       DO#m         LA    SI
    Narices frías de una noche atrás.
    
    LA      SI
    Besos por celular
    LA        SI
    las momias de este amor
    LA       SI               MI
    piden el actor de lo que fui.
    
    MI       DO#m           LA       SI
    Pantalla de la muerte y de la canción,
    MI        DO#m          LA          SI
    proyectos de un nuevo spaghetti del rock.
    
  • E  E/D#  E/C#   E/B     LA         SI
    Pistones  de un curioso motor de humanidad
    E  E/D#  E/C#   E/B     LA         SI
    resortes viejos de este amor que va.
    E     E/D#  E/C#         E/B     LA       SI
    Me - moria hostil de un tiempo de paz sin paz.
    E     E/D#  E/C#  E/B     LA         SI
    Na - rices frías  de una noche atrás
    
    
    A          B
    Besos por celular,
    A          B
    las momias de este amor
    A           B             E
    piden el actor de lo que fui
    
    E     E/D#  E/C#   E/B     LA         SI
    Pan - talla de la muerte y de la canción
    E     E/D#  E/C#   E/B    LA         SI
    
  • MI  SI     DO#m   SI      LA       SI
    Pistones  de un curioso motor de humanidad
    MI  SI    DO#m   SI     LA     SI
    resortes viejos de este amor que va.
    MI  SI     DO#m     SI      LA       SI
    Memoria hostil de un tiempo de paz sin paz.
    MI  SI  DO#m  SI   LA       SI
    Narices frías de una noche atrás.
    
    LA      SI
    Besos por celular
    LA        SI
    las momias de este amor
    LA       SI               MI
    piden el actor de lo que fui.
    
    MI  SI    DO#m    SI     LA     SI
    Pantalla de la muerte y de la canción,
    MI  SI     DO#m   SI      LA       SI
    proyectos de un nuevo spaghetti del rock.
    
  •     E
    e-|-----------------|-
    B-|-----------------|-
    G-|-9----9----------|-
    D-|-9h11-9----------|-
    A-|--------11-7-9---|-
    E-|---------------0-|-
    
        E    E     C#m   B      A       B
    e|----------------------------------------------|
    B|----------------------------------------------|
    G|---9----9------6-----4------7------9----------|
    D|---9----9------6-----4------7------9----------|
    A|----------------------------------------------|
    E|-7----6-----4-----2-------5------7------------|
    
    
    E  E     C#m       B     A            B
    Pistones de un curioso motor de humanidad
    resortes viejos de este amor que va
    
  •      E     A     B    C#m    F#    C     G#
    e-|--7--|--5--|--7--|--4--|--2--|--8--|--4--|-
    B-|--9--|--5--|--7--|--5--|--2--|--8--|--4--|-
    G-|--9--|--6--|--8--|--6--|--3--|--9--|--5--|-
    D-|--9--|--7--|--9--|--6--|--4--|--10-|--6--|-
    A-|--7--|--7--|--9--|--4--|--4--|--10-|--6--|-
    E-|--x--|--5--|--7--|--x--|--2--|--8--|--4--|-
    
    intro:
    e-|--------------------|-
    B-|--------------------|-
    G-|-9----9-------------|-
    D-|-9h11-9-------------|-
    A-|--------11-7-9---7--|-
    E-|--------------------|-
    
    
    mientras canta:
    
    
    
  • e|---------------------------9----------------------------------------------
    B|-----------------------------12p9-----------------------------------------
    G|------------9----9--11b13----------11b13r11p9--------------------9--------
    D|----------9---11-------------------------------11p9-------------9--9h11-9-
    A|----7-9s11-------------------------------------------11s9-7-9s11----------
    E|7h9-----------------------------------------------------------------------
    
    e|--------9------------------------------------9----------9-11--------------
    B|--12b14---12p9---------------------12----------12-----------12------------
    G|----------------11b13r11p9---11b13----13r11-------11b13---------11b13r11p9
    D|--------------------------------------------------------------------------
    A|--------------------------------------------------------------------------
    E|--------------------------------------------------------------------------
    
    e|--------------------------------12h14-12h14-12----------------------------
    B|--------------------------------12h14-12h14-12----------------------------
    G|----------------------9---------------------------------------------------
    D|--11p9---------------9-9h11-9------------------XX-9h11-9------------------
    A|--------11s9-7--9s11-----------------------------------------7-9-9s11-9---
    E|---------------------------------------------------------7h9--------------
    
  • Esta es mi version de spaghetti del rock
    si no le agarran al ritmo pueden verlo aca
    http://www.youtube.com/watch?v=F44DXDsARjY
              (esta tal cual)
    
    Verso:
    G---------------------------------------------
    D------9-------9/---------6-------------4-----
    A--7-----9-7-6---------4----4------2-2--------
    E---------------------------------------------
    
    G---------------------------------------------
    D---------------------------------------------
    A-------------------------6----6-7------------
    E-----5---5-5---4-5-7---7---7-----------------
    
    Pre-EstribillO:
    G-------------------------------------------
    D------------------------------------------2veces
    A--------------7-4---------------6-9--------
    E-----5----5-4-----5-7-----7-6-7------------
    
    G---------------------------------------------------------
    D---------------------------------------------------------
    A--------------7-4-----------6---6h7--7-----9h11--9-7-----
    E-----5----5-4-----5-7-----7---7--------------------------
    
    
    Estribillo:
       re  mo
  • +
    ¡Colabora con nosotros!
    Envíanos tu versión de esta canción
  • Tutorial
    HD
    Como Tocar " Spaghetti del rock " de Divididos DEMO/COVER
    1:57
  • Tutorial
    HD
    Como Tocar " Spaghetti del rock " de Divididos VERSOS
    7:55
  • Tutorial
    HD
    Explicado - Como tocar "Spaghetti del Rock" de Divididos en el bajo tutorial#134
    15:29
  • Tutorial
    HD
    Como Tocar " Spaghetti del rock " de Divididos SOLO
    7:38

Letra de Spaghetti del rock
Pistones de un curioso motor de humanidad
resortes viejos de este amor que va.
Memoria hostil de un tiempo de paz sin paz.
Narices frías de una noche atrás.
Besos por celular
las momias de este amor
piden el actor de lo que fui.
Pantalla de la muerte y de la canción,
proyectos de un nuevo spaghetti del rock.
Cíclope de cristal
devora ambición,
vomita modelos de ficción.
Remontar el barrilete en esta tempestad
sólo hará entender que ayer no es hoy
que hoy es hoy
y que no soy actor de lo que fui.
Besos por celular
las momias de este amor
piden el actor de lo que fui.
Remontar el barrilete en esta tempestad
sólo hará entender que ayer no es hoy
que hoy es hoy
y que no soy actor de lo que fui.




[Spaghetti del rock acordes][Spaghetti del rock chords]
© LaCuerda.net · notícia legal · privacidade · es · en · pt · contato
DINAMICO