Cifras para Violão e Guitarra » E »Enanitos Verdes » Igual que Ayer (Tab)

Igual que Ayer
Enanitos Verdes

Letras, cifras e tablaturas para violão, guitarra, piano, ukulele e baixo

  • Intro :   G - D - G
              Am - D - G - G/F# - E - Am - D
              G - Dm G
    
             Am          D
    Nos conocimos sin saber
                 G  G/F#      E
    que un cigarrillo y un café
              Am            D             G - D - G
    serían excusas para el tiempo de los dos.
    
    
            Am         D
    Voy a salir a caminar
                      G    G/F#   E
    y aunque es muy grande la ciudad
           Am             D             G - D - G
    yo presiento que nos vamos a encontrar.
    
    
    
  • G       Am          D7 
    Nos conocimos sin saber
                G     G/F#   Em
    que un cigarrillo y un café
             Am7           D7            G
    serian excusas para el tiempo de los dos
             Am7      D7 
    voy a salir a caminar
                    G      G/F#  Em
    y aunque es muy grande la ciudad
          Am7            D7           G
    yo presiento que nos vamos a encontrar.
    
       Bsdim    Bdim
    Porqué mantuviste encendida
                 Am7
    la chispa de nuestro amor
     A#      A        G      F       Bsdim  Bdim
    ahora te llevo en cada latido de mi corazón
           Am7      D7           G G/F#  Em
    
  •    G5
    e|--3--|
    B|--3--|
    G|--0--|
    D|--0--|
    A|--2--|
    E|--3--|
    
    Otra cosita el E14 es el E7 octaveado igual suena bonito y es opcional.
    
    
    Cualquier inquietud me escriben al correo y tratare de ayudarles
    
    
    
    JORGE ALBERTO CONTRERAS   CUCUTA - COLOMBIA
    
    
    
    
    
  •          Am          D
    Nos conocimos sin saber
                 G  G/F#      E
    que un cigarrillo y un café
              Am            D             G - D - G
    serían excusas para el tiempo de los dos.
    
    -----------------------------------
    ---10------------------------------
    --------12^------------------------
    
           Am         D
    Voy a salir a caminar
                      G    G/F#   E
    y aunque es muy grande la ciudad
           Am             D             G - D - G
    yo presiento que nos vamos a encontrar.
    
    e----------------------------------
    b--------12---10---8---------------
    
  • G       Am          D7 
    Nos conocimos sin saber
                G     G/F#   Em
    que un cigarrillo y un café
             Am7           D7            G
    serian excusas para el tiempo de los dos
             Am7      D7 
    voy a salir a caminar
                    G      G/F#  Em
    y aunque es muy grande la ciudad
          Am7            D7           G
    yo presiento que nos vamos a encontrar.
    
       Bsdim    Bdim
    Porqué mantuviste encendida
                 Am7
    la chispa de nuestro amor
     A#      A        G      F       Bsdim  Bdim
    ahora te llevo en cada latido de mi corazón
           Am7      D7           G G/F#  Em
    
  • Intro    G  D  G   Riff 1
    
    Riff 1
              Am7       D7        G  D/F#  Em
    e-7-8--10-10--8-8-7-8---5-7-8-8--7-7-5-12---|
    B-------------------------------------------|
     Em7      Am7       D7         G
    e-7-8--10-10--8-8-7-7----5-5-3-3------------|
    B-------------------------------------------|
    
           Am7          D7
    Nos conocimos sin saber,
                G     D/F#   E7
    que un cigarrillo y un café,
             Am7           D7            G  G7
    serían excusas para el tiempo de los dos.
    
    Voy a salir a caminar,
    y aunque es muy grande la ciudad,
    yo presiento que nos vamos a encontrar.
    
  • INTRO:
    
    G---------------------------------------------------------------
    D---------------------------------------------------------------
    A---------------------------------------------------------------
    E-3-33-33-3-----------------------------------------------------
    
    G---------------------------------------------------------------
    D---------------------------------------------------------------
    A--------5-55-5--------7-77-7--------5-55-----------------------
    E-5-55-5--------7-76-6--------5-55-5-----5-3-33-33-33-4---------
    
    CANTO:
    G---------------------------------------------------------------
    D---------------------------------------------------------------
    A--------5-55-5--------7-77-7--------5-55----------------------- X2
    E-5-55-5--------7-76-6--------5-55-5-----5-3-33-33-33-4---------
    
    G---------------------------------------------------------------
    D---------------------------------------------------------------
    A-----------------------------6-65-53-31-1-------5-55-5---------
    E-8-
  • +
    ¡Colabora con nosotros!
    Envíanos tu versión de esta canción
  • Tutorial
    Igual que ayer - Enanitos verdes - Como tocar en guitarra acordes
    4:16

Letra de Igual que Ayer
Nos conocimos sin saber
que un cigarrillo y un café
serían excusas para el tiempo de los dos.
Voy a salir a caminar
y aunque es muy grande la ciudad
yo presiento que nos vamos a encontrar.
Porqué mantuviste encendida
la chispa de nuestro amor
yo ahora te llevo en cada latido de mi corazón.
Yo necesito tu amor dame tu amor oh oh oh
yo necesito tu amor igual que ayer.
Cómo explicarte la emoción
cuando escuché por fin tu voz
quedo desierta la ciudad solo para los dos.
otra vez en el mismo bar
un cigarrillo y un café
viejas excusas de un encuentro sin final
Porqué mantuviste encendida
la chispa de nuestro amor
yo ahora te llevo en cada latido de mi corazón.
Yo necesito tu amor dame tu amor oh oh oh
yo necesito tu amor igual que ayer.
(Insrumental como en las estrofas)
parece que al final los dos
pudimos reaccionar, supimos reaccionar.
Recuperemos el lugar,
lugar que nadie mas llenó
y con las flores del jardín florecerá el amor
Porqué mantuviste encendida
la chispa de nuestro amor
yo ahora te llevo en cada latido de mi corazón.
Yo necesito tu amor dame tu amor oh oh oh
yo necesito tu amor igual que ayer. (Bis)
Yo necesito tu amor, yo necesito tu amor
Yo necesito tu amor, igual que ayer. (Bis)




[Igual que Ayer acordes][Igual que Ayer chords]
© LaCuerda.net · notícia legal · privacidade · es · en · pt · contato
DINAMICO