Cifras para Violão e Guitarra » E »Enrique Iglesias » Miente (Tab)

Miente
Enrique Iglesias

Letras, cifras e tablaturas para violão, guitarra, piano, ukulele e baixo

  • [Bb]Hoy en tu mirada hay no se que
    Algo espe[dm]cial
    [Bb]Ni Siquera El beso tan de amor
    fue natu[dm]ral
    [C]fue un presentimiento O qui[gm]za
    Lei tu mi[F]ente
    Por Fa[A]vor
    Si es a[A]si como Sientes
    
     CORO:     
    [dm]Miente[Bb]
    Dime que me [C]amas[am]
    Jurame que [Bb]nunca[gm]
    piensas ale[A]jarte de mi
    [dm]Miente[Bb]
    Vendame los [C]ojos[am]
    Grabate muy  [Bb]dentro[gm]
    Que si tu me[A] dejas
    No po[A]dre vivir sin ti
    
    [Bb]Dejame pedirte tu per[dm]don
    [Bb]SI  te ofen[Dm]di
    [Bb]pero no me pidas remum[dm]ciar
    [Bb]A ser feliz[Dm]
    [C]Dejame intentarlo yo hare[gm]
    Lo que tu [F]quieras
    Y des[A]pues
    Si es que [A]no me quisieras
    
    CORO x3
  •            A
    e--------------------------------------
    b---------------4---5---4---7---5---4--
    g---4---6---6-------------------------- x3
    d-6---6---6---6---6---6---6---6---6----
    a--------------------------------------
    e--------------------------------------
    
    
    
    
          C#m
    e-----------------------------------
    b----7---5---4-------7---5---4------
    g----------------6---------------6--
    d--6---6---6---6---6---6---6---6----
    a-----------------------------------
    e-----------------------------------
    
    
    
  • +
    ¡Colabora con nosotros!
    Envíanos tu versión de esta canción

Letra de Miente
[Bb]pero no me pidas remum[dm]ciar
[C]Dejame intentarlo yo hare[gm]
Lo que tu [F]quieras
Y des[A]pues
Si es que [A]no me quisieras




[Miente acordes][Miente chords]
© LaCuerda.net · notícia legal · privacidade · es · en · pt · contato
DINAMICO