Cifras para Violão e Guitarra » F »Fito Paez » Dos días en la vida (Tab)

Dos días en la vida
Fito Paez

Letras, cifras e tablaturas para violão, guitarra, piano, ukulele e baixo

  • Intro:[C G/B Am7 G] x2
    
    C                     Dsus4        D     G
     Honey, honey, honey, babe y ya dejemos de llorar,
            C                         Dsus4          D         G
    te veo ahí en media hora, no te olvides, nos largamos de aquí.
    C               Dsus4        D    Em
     Dos días en la vida nunca vienen nada mal
               C                     Dsus4-D
    de alguna forma, de eso se trata vivir.
    
    Salieron en un coche, descansaron en un bar,
    con mejicanos, margaritas, dos chicas: una sabe mentir.
    Eligen una mesa, un par de tragos y a bailar,
    Thelma y su cowboy que ahora la saca de allí.
    
    G G/B    C       Dsus4-D      G
     “Presa del mal, quise   escapar,”
              C                      D
    el tipo trata de violarla, cae Louise
    
  • C                    Dsus4          D           G
      Honey honey honey Babe   y ya dejemos de llorar
            C                         Dsus4          D          G
    te veo ahí en media hora no te olvides, nos largamos de aquí
    C                Dsus4         D         Em
     Dos días en la vida nunca vienen nada mal
                  C                    Dsus4-D
    de alguna forma de eso se trata vivir
    
    Salieron en un coche
    descansaron en un bar
    con mejicanos margaritas
    dos chicas: una sabe mentir
    eligen una mesa un par de tragos
    y a bailar
    Thelma y su cowboy que
    que ahora la saca de allí
    
    G   G/B       C   Dsus4  D      G
       Presa del mal quise    escapar
    
  • C G/B Am7 G
    C G/B Am7 Dsus4
    
    e|-0-0-2-3-----0-------|-0-0-2-3-----0-2-3-3-|
    B|---------3-0---3-1-3-|---------3-0---------|
    G|------------0--------|------------0--------|
    D|---------------------|---------------------|
    A|---------------------|---------------------|
    E|---------------------|---------------------|
    
    C                     Dsus4        D     G
     Honey, honey, honey, babe y ya dejemos de llorar,
            C                         Dsus4          D         G
    te veo ahí en media hora, no te olvides, nos largamos de aquí.
    C               Dsus4        D    Em7
     Dos días en la vida nunca vienen nada mal
               C                     Dsus4-D
    de alguna forma, de eso se trata vivir.
    
    C               Dsus4        D          G
    
  • Bajista: Guillermo Vadalá
    
    ACLARACIÓN:En ningún momento se toca en el traste 1, por lo tanto
    cada 1 que aparezca, se refiere a 10, 11, 12, etc.
    
    Verse:
    |-----------------------------------------------------------
    |-------------7-->5-5-35--5535-------------7-->5-5-35--5535-
    |023—3-23--332------------------3-3-23--332-----------------
    |-----------------------------------------------------------
    
    |------------------9------------------------------------------------
    |-<10-10-910--10109----------------10-10-910--1010910---------------
    |---------------------7-7-57-7757----------------------5-5-35--5535-
    |-------------------------------------------------------------------
    
    |-----------------------------------------------------------
    |-------------7-->5-5-35--5535-------------7-->5-5-35--5535-
    |->3—3-23--332------------------3-3-23--332-----------------
    |-----------------------------------------------------------
    
    |------------------9--------------------------------------
  • +
    ¡Colabora con nosotros!
    Envíanos tu versión de esta canción

Letra de Dos días en la vida
Honey, honey, honey, babe y ya dejemos de llorar,
te veo ahí en media hora, no te olvides, nos largamos de aquí.
Dos días en la vida nunca vienen nada mal
de alguna forma, de eso se trata vivir.
Salieron en un coche, descansaron en un bar,
con mejicanos, margaritas, dos chicas: una sabe mentir.
Eligen una mesa, un par de tragos y a bailar,
Thelma y su cowboy que ahora la saca de allí.
Presa del mal, quise escapar,
el tipo trata de violarla, cae Louise
que te salgas de ahí, vas a pedir, vas a pedir,
piedad o te vuelo la cabeza puercoespín.
La bala fue precisa, el mismo tipo no habló más,
tomaron una carretera, la botella, y se marcharon de ahí.
Dormí con el ladrón y me dió amor hasta llorar,
me voy a México, rápido; dijo Louise.
Thelma entró y robó en el supermarket,
¿sabías, tu chico vio MTV?,
los militares odian esas almas
y yo las quiero para mí.
Debo decir, debo decir,
las cosas se pusieron más difíciles,
y sabes que sí. Si lo soñe o lo viví,
las chicas conmigo son Thelma y Louise.
[Outro]
Acordes:




[Dos días en la vida acordes][Dos días en la vida chords]
© LaCuerda.net · notícia legal · privacidade · es · en · pt · contato
DINAMICO