Cifras para Violão e Guitarra » F »Fito Paez » la Rueda Mágica (Tab)

la Rueda Mágica
Fito Paez

Letras, cifras e tablaturas para violão, guitarra, piano, ukulele e baixo

  • E       F#m11/E
    Un
                      E          F#m11/E
    recuerdo desde el Africa
                     E             F#m11/E
    un sueño con la Liverpool Band
                          E        F#m11/E
    Y ella que siempre se va
    E  F#m11/E   Badd4           E           F#m11/E
    U-        na foto de los Rolling Stones
        Badd4       E          F#m11/E
    mi vieja nunca los escuchó
            Badd4     E
    y no me puse a llorar.
    
    
    Unos días en cualquier lugar
    perdido en una inmensa ciudad
    en una rueda mágica.
    Y ,l, el ángel de la soledad
    
  • E:        022100
    Asus2/C#: x42200
    Esus4:    022200
    F#m7:     242000
    B7sus4:   224252
    E/G#:     4x2100
    A:        x02220
    B7:       224240
    Dsus2:    xx0230
    Bsus4:    224452
    Ab:       466544
    Ab7:      464544
    C#m:      446654
    C#m7/B:   746454
    F#m/E:    044200
    E7sus4:   020200
    
    
    [Intro]
    
    
  • |----------------|
    |----------------|
    |----------------|
    |---2-1-2--------|
    |-2--------------|
    |----------------|
    
    
    Riff 2
    |----------------|
    |----------------|
    |----------------|
    |---4-3-4--------|
    |-4--------------|
    |----------------|
    
    Riff 3
    |----------------|
    |----------------|
    |----------------|
    
  • Fito Paez - Rueda Magica
    Punteados
    
    >----------------------------------------------------------
    >----------------------------------------------------------
    >----------------------------------------------------------
    >----------------------------------------------------------
    >------------2--4-----2/7--6--4--2--0-----0--2------2--4---
    >--0----0--4-------2-------------------4---------4--------2
    
    
    >--------------------------------------------------------------------
    >--------------------------------------------------------------------
    >--------------------------------------------------------------------
    >--------------------------------------------------------------------
    >--4/7--6--4--2--0-----0--2-----------------------------------2--4---
    >-------------------4--------0-----0-0-0--2--0--2--2/4--0--4--------2
    
    
    >--------------------------------------------------------------0-0-0-
    >--------------------------------------------------------------0-0-0
  • +
    ¡Colabora con nosotros!
    Envíanos tu versión de esta canción

Letra de la Rueda Mágica
Un
recuerdo desde el Africa
un sueño con la Liverpool Band
Y ella que siempre se va
U- na foto de los Rolling Stones
mi vieja nunca los escuchó
y no me puse a llorar.
Unos días en cualquier lugar
perdido en una inmensa ciudad
en una rueda mágica.
Y ,l, el ángel de la soledad
protege lava y cura este mal
,l no me abandonar .
Nuestra vida es un lecho de cristal
y esta vida est hecha de cristal
nuestra vida es un lecho de cristal
un lecho de cristal para los dos
Uh, que extraña esa fascinación
un poster y una Gibson Les Paul
que nunca voy a olvidar.
Uh, recuerdo un día como hoy
me fu¡ de casa a tocar rock and roll
y no volví nunca mas.
Nuestra vida es un lecho...
y esta vida...
Un lecho de cristal para los dos
Podrías verlo as¡
ya no podría mas vivir.
Todos ya nos fuimos de aquí¡
Todos ya nos fuimos de casa
para tocar rock & roll
Todo lo que cura es en ti
todo est sellado en mi alma
para tocar rock & roll
Un recuerdo desde el Africa...
Badd4--]24252




[la Rueda Mágica acordes][la Rueda Mágica chords]
© LaCuerda.net · notícia legal · privacidade · es · en · pt · contato
DINAMICO