Tablatura de Los Guaraníes: Tocamelo una chacarera
Los Guaraníes  corregir
desconocido
Bueno gente es mi primera colaboracion y es con este tab...
los acordes de la canción
ya estan y son los mismos en la versión de los guaranies...



E-------------------7-8-8--12-12-10-10-10s12-10-8--12-10-8
B--------888---10-----------------------------------------
G-----------------7---9-9--12-12-10-10-10s12-10-9--12-10-9
D------9-----10-------------------------------------------
A---------------------------------------------------------
E---------------------------------------------------------

E-------------------7-8-8--12-12-10-10--12-10-8-----------
B--------888---10-----------------------------------------
G-----------------7---9-9--12-12-10-10--12-10-8-----------
D------9-----10-------------------------------------------
A---------------------------------------------------------
E---------------------------------------------------------


Listo eso fue todo para toda la gente de tartagal!!!
cualquier corrección sera bienvenida aunque asi suena muy bien
Este arquivo é o trabalho do seu trnascritor e representa sua interpretação pessoal da música. O material contido nesta página é para uso privado exclusivo, portanto, é proibida sua reprodução ou retransmissão, bem como seu uso para fins comerciais.
© LaCuerda.net · notícia legal · privacidade · es · en · pt · contato