Cifras para Violão e Guitarra » J »Jaime Murrell » Alabe al señor (Tab)

Alabe al señor
Jaime Murrell

Letras, cifras e tablaturas para violão, guitarra, piano, ukulele e baixo

  •  F        Am7 Gm7      F
    
         Alabe al Señor toda la tierra,
    
         Gm7          F              C
    
         toda su creación exalte su nombre.
    
           F        Am7 Gm7         F
    
         Alabe al Señor todo ser viviente,
    
         Gm7             F    Bb         C
    
         todo lo que respire alabe al Señor.
    
    
    
                Am7             Dm7
    
    
  •       F        Am7  Gm7      F
    V1) Alabe al Señor  toda la Tierra
        Gm7          F/A          Bb/C  C
        Toda su creación exalte su nombre.
    
    
          F        Am7 Gm7         F
    V2) Alabe al Señor todo ser viviente,
          Gm7          F/A   Bb/C       C
        Todo lo que respire alabe al Señor.
        Bb
    
    
               Am7           Dm7
    C) Porque grandes son sus obras,
             Gm7        C      Bb
       Él ha hecho maravillas
            Am7            Dm7
       Y me dio aliento de vida
         Gm7  F/A    Bb     C
    
  • Afinación: G D A E B
    
    
       Intro:
    G |------------------------------------------------------------------
    D |------------------------------------------------------------------
    A |------------------------5------7---------------5-----8s10s8-------
    E |---3—-5--6—-8s10-8-6---3-3--5---5--6--8-8-6---3-3--5-------6------
    B |------------------------------------------------------------------
    
                    Verso 1
    G |------------|-----------------------------------------------------
    D |------------|------3----------------------------------3-3---------
    A |------------|------------------7----------5---------3---------3---
    E |--5-6-8-8-8-|-1------1—---3s5----5----3---------1---------------1-
    B |------------|-----------------------------------------------------
    
    
    G |---------------------------------------|
    D |------------------7--------------------|
    A |------5--------7--------------3--------|
    E |-3-----3---5----------8---------3------|
    B |----------------------------------1-1--|
    
    
    Verso 2
    G |---
  • +
    ¡Colabora con nosotros!
    Envíanos tu versión de esta canción

Letra de Alabe al señor
Alabe al Señor toda la tierra,
toda su creación exalte su nombre.
Alabe al Señor todo ser viviente,
todo lo que respire alabe al Señor.
Porque grandes son tus obras,
El ha hecho maravillas y me dio aliento de vida
En adoracion Señor a ti
me entrego en sacrificio vivo
y hoy te quiero coronar a ti.




[Alabe al señor acordes][Alabe al señor chords]
© LaCuerda.net · notícia legal · privacidade · es · en · pt · contato
DINAMICO