Cifras para Violão e Guitarra » J »Jaime Murrell » Grande eres tú (Tab)

Grande eres tú
Jaime Murrell

Letras, cifras e tablaturas para violão, guitarra, piano, ukulele e baixo

  • Em
    Del poder de tus hechos
    Em
    Alabarán los hombres
      Am              D
    y mis labios publicarán
       G               B7
    de tu grandeza cantarán
    
       Em
    En la hermosura de tu gloria
       Em
    mi corazón se goza
       Am          D
    y mi boca levantará
        G             B7
    tus alabanzas cantará
    
        Em          D
    Porque grande eres tu
    
  • G] :------------:--------------:---------------:---------------:
    D] :------------:---------5-7--:---------------:---------7-5---:
    A] :------5-7---:----5-7-------:-7------5-7----:----5-7--------:
    E] :-0-0------0-:--0-----------:----0-0------0-:---------------:
    B] :------------:--------------:---------------:---------------:
    
    G] :------------:--------------:---------------:---------------:
    D] :------------:---------5-7--:---------------:--------7-7-5--:
    A] :------5-7---:----5-7-------:-7------5-7----:-----5---------:
    E] :-0-0------0-:--0-----------:-----0------0--:---------------:
    B] :------------:--------------:---------------:---------------:
    
    
    :Estrofa:
    
    Del poder de tus hechos...
    G] :------------:--------------:---------------:---------------:
    D] :------------:---------5-7--:---------------:---------7-5---:
    A] :------5-7---:----5-7-------:-7------5-7----:----5-7--------:
    E] :-0-0------0-:--0-----------:----0-0------0-:---------------:
    
  • +
    ¡Colabora con nosotros!
    Envíanos tu versión de esta canción

Letra de Grande eres tú
Del poder de tus hechos
Alabarán los hombres
y mis labios publicarán
de tu grandeza cantarán
En la hermosura de tu gloria
mi corazón se goza
y mi boca levantará
tus alabanzas cantará
Porque grande eres tu
y digno de alabanza
mi Dios y mi Rey te bendeciré
grande eres tu
y digno de toda gloria
Tu nombre exaltaré




[Grande eres tú acordes][Grande eres tú chords]
© LaCuerda.net · notícia legal · privacidade · es · en · pt · contato
DINAMICO