Cifras para Violão e Guitarra » J »Jarabe de Palo » Adios (Tab)

Adios
Jarabe de Palo

Letras, cifras e tablaturas para violão, guitarra, piano, ukulele e baixo

  •      A    C#m   D     Dm   F#m
    e----5-----4----5-----5-----2---|
    B----5-----5----7-----6-----2---|
    G----6-----6----7-----7-----2---|
    D----7-----6----7-----7-----4---|
    A----7-----4----5-----5-----4---|
    E----5-----4----5-----5-----2---|
    
    
    La cancion suena mejor si la tocas asi que con la A,D,Dm regular.
    
    
    
    A   
    Tengo que decirte 
    C#m
    que el dia es muy triste 
    D
    que va ser como imposible que 
    Dm
    
  • A                    C#m
    Tengo que decirte    que mi vida  es muy triste
    D                           Dm
    que va ser como imposible  que  me olvide de que existes
    
    A                   C#m
    Tengo que decirte   Que el día en que te fuiste
    D                             Dm
    se encendieron las farolas    que alumbraban el  camino
    
    A                         C#m
    Para que pudieras volver  para que pudieras volver
    F#m                       D
    para que pudieras volver  para que pudieras volver
    A                         C#m
    Para que pudieras volver  para que pudieras volver
    F#m                        D
    para que pudieras volver  para que pudieras volver
    
    A        C#m        D   Dm   E
    
  • Aqui esta el solo de 'adios'
    Los tonos que lleva mientras se toca el solo son:
    A, C#m, D, Dm
    
    
    e|---------------------------------------------------|
    B|-----------------------------------14^-17-14-------|
    G|----------------------11--14-16-14-----------16-14-|
    D|----------------10/12------------------------------|
    A|-5/7~-7-9/11-11------------------------------------|
    E|---------------------------------------------------|
    
    
    e|-14-12---------------------------------------------------|
    B|-------14h13h12-----14-14-14-14-14-14-14-14-17^-12^-10~--|
    G|----------------14---------------------------------------|
    D|---------------------------------------------------------|
    A|---------------------------------------------------------|
    E|---------------------------------------------------------|
  • +
    ¡Colabora con nosotros!
    Envíanos tu versión de esta canción

Letra de Adios
La cancion suena mejor si la tocas asi que con la A,D,Dm regular.
Tengo que decirte
que el dia es muy triste
que va ser como imposible que
me olvide de que existe
Tengo que decirte
Que el dia en que te fuiste
se incendieron las farolas
que alumbraban el camino
Para que pudieras volver
para que pudieras volver
para que pudieras volver
para que pudieras volver.....
volver volver.....
Tengo que decirte
Que que a la luz de la candela
intento arañar la hierba
que no deja que te vea
Deja que te espere a la
puerta de tu casa
un minuto me hace falta
luego me voy para siempre
Adios, adios
y por si acaso que sepas
que aqui siempre tienes un sitio
Adios, Adios
y aunque no te lo creas
sin ti nada sera lo mismo
Adios, adios adios......




[Adios acordes][Adios chords]
© LaCuerda.net · notícia legal · privacidade · es · en · pt · contato
DINAMICO