Cifras para Violão e Guitarra » J »Jesús Adrián Romero » A sus pies (Tab)

A sus pies
Jesús Adrián Romero

Letras, cifras e tablaturas para violão, guitarra, piano, ukulele e baixo

  • Am                   A/C#       Dm    
     Cuando el mundo te inunda de fatalidad
    G               G/B          C
     Y te agobia la vida con su mucho afán
    F                          Dm
     Y se llena tu alma de preocupación
    Bm7                         E
     Y se seca la fuente de tu corazón
    Am               A/C#           Dm  
     Cuando quieras huir porque no puedes más
    G               G/B            C 
     Porque sólo te sientes entre los demás
    F                                  Dm
     Y no hay más en tus ojos brillo y emoción
    Bm7                             E
     Y se cierra tu boca porque no hay canción
    
    Am                     E/G#
     Puedes sentarte a sus pies
    E                  Am
    
  • intro: Am  Dm  E/G# Am  F6  Esus E
    
                  -VERSO-
    Am9                             Dm
     Cuando el mundo te inunda de fatalidad
    Gsus4            G/B        C
     Y te agobia la vida con su mucho afán
    F2                          Dm7
     Y se llena tu alma de preocupación
    G7/B                       Esus4  E
     Y se seca la fuente de tu corazón
    Am9                            Dm7
     Cuando quieras huir porque no puedes más
    Gsus4               G/B            C
     Porque sólo te sientes entre los demás
    F2                                Dm7
     Y no hay más en tus ojos brillo y emoción
    G7/B                               Esus4  E7
     Y se cierra tu boca porque no hay canción
    
    
  •   Intro: Am   Dm  E7/G#  Am
             Am   Dm  Esus4   E
    
      (Estrofa)
    
     Am2                              Dm
      Cuando el mundo te inunda de fatalidad
     Gsus4            G/B         Csus4 - C
      Y te agobia la vida con su mucho afán
     F                           Dm
      Y se llena tu alma de preocupación
     Bdim                        Esus4    E
      Y se seca la fuente de tu corazón
     Am                A7/C#          Dm
      Cuando quieras huir porque no puedes más
     Gsus4            G/B          Csus4 - C
      Porque solo te sientes entre los demás
     F                                  Dm
      Y no hay mas en tus ojos brillo y emoción
     Bdim                            Esus4      E
    
  • A sus Pies (Am)
    
    Intro 1:
    
     | Am7          |Dm7 | Bº   Bº/D    | Am7 |
    
    e -------8------|----|-7-8-10-------|-----|
    B -10-12---8----|----|--------------|-----|
    G -----------10-|----|--------10-9--|-----|
    D --------------|----|--------------|-----|
    A --------------|----|--------------|-----|
    E --------------|----|--------------|-----|
    
     | Fmaj7      | Am7/D   Dm7      | E   |E  ...
    
    e ------------|------------------|-----|----
    B ------------|------------------|-----|----
    G ------------|-9h10-9-----------|-----|----
    D ----9-10-12-|---------12-10-10h|12---|----
    A -12---------|------------------|-----|----
    
  • e-5-7-8---------------7-8-10----------------
    B-------8-6-----------------------------0-1-
    G----------------------------10-9-----2-----
    D------------2-3--------------------2-------
    A-----------0---------------------0---------
    E-------------------------------------------
    
    e--------0--3---1----0-0-------------0------
    B----0-1----1---------3-------0-------------
    G--2--------2---2-----------2---2----1------
    D-------------------------------------------
    A-------------------------------------------
    E-------------------------------------------
    
    
    Am
     Cuando el mundo te inunda de fatalidad E-1--0-
                                            B------
                                            G-2----
    Csus2
    
  •        
              A sus Pies; es una de las adoraciones que si lo logra
    escuchar el corazón, es capaz de atravezar lo mas profundo de 
    nuestro ser.  Esta adoracion esta muy bella, ojala lo vean como yo.
    
    
    
    ::Intro::
    
    ::Verso::
    
    ::Pre-Coro::
    
    E |--5---4----4--4---3---2---1---0-------0--0-----0---------
    A |----------------------------------2---------2------------
    D |---------------------------------------------------------
    G |---------------------------------------------------------
    B |---------------------------------------------------------
    
    
    
    
    E |--5----4----4--4---3----2---1---0----------0---0-------0----
    A |---------------------------------------2-----------2--------
    D |-----------------------------------2------------------------
    G |------------------------------------------------------------
    B |------------------------------------------------------------
    
    
    ::Coro::
    
    E |--5---5-----------4----4--5--------5---1-----------------------
    A |---------5----
  • LAm                                REm
     A  D      D C   D E E E  E   G G F F
    Cuando el mundo te inunda de fatalidad
    SOL                                DO
    D G   G  G  G  G A  G   D   F E    E F G F E
    y te agobia la vida con su mucho afán
    FA                          REm
    G A   A G  G  G F  F   C  E D  D
    y se llena tu alma de preocupación
    SI                          MI
    D  F F E   D  F  E  E  D   F E E F G F E
    y se seca la fuente de tu corazón
    LAm               LA7             REm
     E  D   D   C  E E   E  E  G   G  F   F
    cuando quieras huir porque no puedes mas
    SOL                                DO
     F  G   G G  G  G   A  G  D   F   E E F G F E
    porque solo te sientes entre los demas
    FA                                 REm
    A   A    A   G   G  G F   F  C    E D D  E F E D
    y no hay mas en tus ojos brillo y emoción
    SI                            MI
    E  F  F  E   D  F D  E  D    F     E  E  F G F E
    y se cierra tu boca porque no hay canción
    coro:
    LAm                   MI                     DO
     A
  • +
    ¡Colabora con nosotros!
    Envíanos tu versión de esta canción

Letra de A sus pies
Cuando el mundo te inunda de fatalidad
Y te agobia la vida con su mucho afán
Y se llena tu alma de preocupación
Y se seca la fuente de tu corazón
Cuando quieras huir porque no puedes más
Porque sólo te sientes entre los demás
Y no hay más en tus ojos brillo y emoción
Y se cierra tu boca porque no hay canción
Puedes sentarte a sus pies
Y de sus manos beber
La plenitud que tu alma necesita
Puedes sentarte a sus pies
Y cada día tener
Una nueva canción y nueva vida
A sus pies hay paz, gracia y bendición
A sus pies tendrás, luz y dirección
La plenitud en él nunca se agotará
Puedes descansar en su presencia




[A sus pies acordes][A sus pies chords]
© LaCuerda.net · notícia legal · privacidade · es · en · pt · contato
DINAMICO