Cifras para Violão e Guitarra » J »Jesús Adrián Romero » Al estar ante tí (Tab)

Al estar ante tí
Jesús Adrián Romero

Letras, cifras e tablaturas para violão, guitarra, piano, ukulele e baixo

  •        D       A
    AL ESTAR ANTE TI
           Em                      Bm
    ADORANDO FRENTE AL MAR DE CRISTAL
           D        A
    ENTRE LA MULTITUD
            Em                      Bm
    EN ASOMBRO ALLI ME ABRE DE POSTRAR
    
             D      A
    Y MI CANTO UNIRE
            Em                Bm
    A MILLONES PROCLAMANDOTE REY
          D      A
    Y MI VOZ OIRAS
    Em                      Bm      A
    ENTRE LAS MULTITUDES CANTAR
    
                    G         D
    DIGNO ES EL CORDERO DE DIOS
    
  •       D         A
    Al estar ante ti
      Em                          Bm
    adorando frente al mar de cristal
     A/C#  D         A
    entre  LA multitud
        Em                         Bm
    en asombro alli me habre de postrar
    
     A/C#  D         A
    y   mi canto unire
        Em                   Bm
    A millones proclamandote rey
      A/C#   D     A
    y  mi    voz oiras
          Em                Bm     Asus4    A
    entre las multitudes cantar
    
    
    coro
    
  •     D         A
    A estar ante ti
      Em                          Bm
    adorando frente al mar de cristal
     A/C#  D         A
    entre  LA multitud
        Em                         Bm
    en asombro alli me habre de postrar
    
     A/C#  D         A
    y   mi canto unire
        Em                   Bm
    A millones proclamandote rey
      A/C#   D     A
    y  mi    voz oiras
          Em                Bm     Asus4    A
    entre las multitudes cantar
    
    
    coro
    
  • e|---14-15-17-15-14-------14-15-15-14-------------14---------------
    B|------------------17-17-------------17-15-15-17----17-15/17-14---
    G|-----------------------------------------------------------------
    D|-----------------------------------------------------------------
    A|-----------------------------------------------------------------
    E|-----------------------------------------------------------------
    
    
    
    e|-----------------------------------------------------------------
    B|-----------------------------------------------------------------
    G|-----------------------------------------------------------------
    D|--11-12-14-12-11-------11-12-12-11-------------11----------------
    A|-----------------14-14-------------14-12-12-14----14-12/14-11----
    E|-----------------------------------------------------------------
    
    
    Solo
    e|---------12-11-11-9-9--------------12-9-9-11---12----------------
    B|-9-10-12--------------12---9-10-12-----------9-------------------
    
  • +
    ¡Colabora con nosotros!
    Envíanos tu versión de esta canción

Letra de Al estar ante tí
AL ESTAR ANTE TI
ADORANDO FRENTE AL MAR DE CRISTAL
ENTRE LA MULTITUD
EN ASOMBRO ALLI ME ABRE DE POSTRAR
Y MI CANTO UNIRE
A MILLONES PROCLAMANDOTE REY
Y MI VOZ OIRAS
ENTRE LAS MULTITUDES CANTAR
DIGNO ES EL CORDERO DE DIOS
EL QUE FUE INMOLADO EN LA CRUZ
DIGNO DE LA HONRA Y EL PODER
LA SABIDURIA SUYA ES
Y AL QUE ESTA EN EL TRONO SEA EL HONOR
SANTO SANTO SANTO ES EL SEÑOR
REINA POR LOS SIGLOS CON PODER
TODO LO QUE EXISTE ES POR EL.




[Al estar ante tí acordes][Al estar ante tí chords]
© LaCuerda.net · notícia legal · privacidade · es · en · pt · contato
DINAMICO