Cifras para Violão e Guitarra » J »Jesús Adrián Romero » Como la brisa (Tab)

Como la brisa
Jesús Adrián Romero

Letras, cifras e tablaturas para violão, guitarra, piano, ukulele e baixo

  • Intro: Em/C/Am/D
    
    Em                  C
    Abro el corazón y las ventanas,
                        Am
    Cuando empieza la mañana,
                         D
    Por si quieres hoy venir.
    
    
    Em                       C
    Eres como el viento que no avisa,
                            Am
    Cuando sopla y trae la brisa,
                       D
    Ven y sopla sobre mí.
     Am                  C           G                 D
    Y mi corazón vuelve a latir, y se renueva, si estás aquí.
     Am                   C          G                Dm
    Y mi corazón vela por ti, porque te espera, vuelve a venir.
    
  • INTRO: FA#m///SIm///FA#m///SIm///FA#m
    
    FA#m                      RE                       SIm
    Abro el corazón y las ventanas, cuando empieza la mañana,
                         MI
    Por si quieres hoy venir.
    FA#m                         RE                            SIm
    Eres como el viento que no avisa, cuando sopla y trae la brisa,
                       MI//FA#m
    Ven y sopla sobre mí.
    SIm                      RE           LA                MI//FA#m
    Y mi corazón vuelve a latir, y se renueva, si estas aquí.
    SIm                   RE               LA                MI
    Y mi corazón vela por ti, porque te espera, vuelve a venir.
    
    Coro:
    
     LA                        MIm                     RE
    Espíritu de Dios ven a mi vida, como lluvia que tardo,
                       SIm///MI
    
  • F#m                       D
    Abro el corazón y las ventanas,
                        Bm
    cuando empieza la mañana,
                         E
    Por si quieres hoy venir.
    
    
    F#m                       D
    Eres como el viento que no avisa,
                            Bm
    cuando sopla y trae la brisa,
                       E
    Ven y sopla sobre mí.
    Bm                A/C#   D             A                E/G#
    Y mi corazón vuelve a latir, y se renueva, si estas aquí.
    Bm              A/C#  D             A                   E
    Y mi corazón vela por ti, porque te espera, vuelve a venir.
    
    Coro:
    
  • Esta es la intro y el solo que ase el piano y la guitarra
    ami "criterio"
    
    Aqui esta la tablatura espero les sirva
    
    
    E|------5-----4------2--------2-----0----------------
    B|--2-----2------2-------------------------3---------
    G|------------------------2------2-----2-------------
    D|---------------------------------------------------
    A|---------------------------------------------------
    E|---------------------------------------------------
    
    E|------5------4---2---------------------------------
    B|--2-----2------------2----0------------------------
    G|---------------------------------------------------
    D|---------------------------------------------------
    A|---------------------------------------------------
    E|---------------------------------------------------
    
      Solo
    
    E|---------------------------------------------------
    B|--10--12--14-------------15------------------------
    G|--x---x-- x------------------14/16b----------------
    D|--7---9--11-------16h17----------------------------
    A|--------
  • Final Riff, tocando por Kiko Cibrian en el tono de A:
    
    E|------------------10-------------------------------
    B|--10--12-14-----10--10s12b------10--------------10-
    G|--------------11-------------------9s11b-----------
    D|---------------------------7--7------------7--7----
    A|-----------------------------7--------------7------
    E|---------------------------------------------------
    
    E|------------------10-------------------------------
    B|--10--12-14-----10--10s12b------10-----------------
    G|--------------11--------------------------9s11s9s7-
    D|---------------------------7--7----7---------------
    A|-----------------------------7---------------------
    E|---------------------------------------------------
    
    Mi version http://br.youtube.com/watch?v=_UkpOfaJGLQ
  • +
    ¡Colabora con nosotros!
    Envíanos tu versión de esta canción

Letra de Como la brisa
Abro el corazón y las ventanas,
Cuando empieza la mañana,
Por si quieres hoy venir.
Eres como el viento que no avisa,
Cuando sopla y trae la brisa,
Ven y sopla sobre mí.
Y mi corazón vuelve a latir, y se renueva, si estás aquí.
Y mi corazón vela por ti, porque te espera, vuelve a venir.
Espíritu de Dios ven a mi vida, como lluvia que tardo,
Y al desierto vida dio.
Desciende sobre mí como la brisa, que destile sobre mí,
Tu poder en mi has fluir.
(VUELVE AL INTRO)




[Como la brisa acordes][Como la brisa chords]
© LaCuerda.net · notícia legal · privacidade · es · en · pt · contato
DINAMICO