Cifras para Violão e Guitarra » J »Jesús Adrián Romero » Con voz de mando (Tab)

Con voz de mando
Jesús Adrián Romero

Letras, cifras e tablaturas para violão, guitarra, piano, ukulele e baixo

  •  A
      CON VOZ DE MANDO Y CON TROMPETA DE DIOS
     A7 EN LOS CONFINES DE LA TIERRA SE OIRA
          D          A
      LA VOZ DE EL SEÑOR.
            A
      LOS MUERTOS EN CRISTO DE SUS TUMBAS VOLVERAN
      A7
    Y LOS QUE VIVIMOS EN LAS NUBES NOS
          D          A
      LEVANTARA EL SEÑOR
    
    CORO
                E   F#m7
      Y EN UNA NUBE NOS LEVANTARA
              E  F#m7
      Y TODO OJO ENTONCES LE VERA
           Bm7  D    E
      AL CORDERO INMOLADO
          Bm7 D       E
    
  • A2
    Con voz de mando y trompeta de Dios
    A9                                  
    En los confines de la tierra se oira
           D2         A2
    la voz------del Señor
    
    A9      A2
    ----Los muertos en cristo de sus tumbas volveran
    ---A9                                     D
    y los que vivimos en las nubes nos levantara
         A2--------
    el señor
    
                E      F#m7(add4)
    Y en una nube------nos encontrara
             E      F#m7(add4)
    Y todo o---jo entonces le vera
          Bm7   Dmaj7       E   Esus4
    Al corde----ro----inmola-do
    
  • E|------------------------------------------------------------|
    B|------------------------------------------------------------|
    G|------------------------------------------------------------|
    D|-5-7-5--4---------------------------------------------------|
    A|-------7--7-4-4-5-7-----------------------------------------|
    E|--------------------5-7-7-5-5-2-0---------------------------|
    
    se repite como 5 veces lo mismo y quiero decir que este es el original
    de acuerdo alas partituras del proyecto original
     y saludos a la banda P.A.v ala 'pora' , a 'cassy',toño,isa
    edgar , mando , peluchin al hno oscar y a mando jr y daniel A
  • :Intro:   'h' = hammer ; 's' = slide
    
                    x 3 veces
    G] :--------------:---------------------:
    D] :-5-7-5---2-4-2:----2----------------:
    A] :--------------:4-5----0-2-2-0-0-----:
    E] :--------------:------------------2-0:
    B] :--------------:---------------------:
    
    G] :---------------------:-----------------:
    D] :-5-7-5---2-4-2-------:-----------------:
    A] :---------------------:-----------------:
    E] :----------------5-5-7:-5s--------------:
    B] :---------------------:-----------------:
    
    :Estrofas:
    
    Con voz de mando...
    
    G] :-----------------:-------------:--------------:------------:
    D] :---7-------------:----7-------7:--------------:---7--------:
    A] :------------7h-9-:------7------:----------7h-9:----7-------:
    E] :5-----5-5--------:5-------5----:5---5-5-------:5----5-----5:
    B] :-----------------:-------------:--------------:------------:
    
    la voz...
    
    G] :---------------:-----------:-------------:---------:
    D] :---------------:-----------:------------
  • +
    ¡Colabora con nosotros!
    Envíanos tu versión de esta canción

Letra de Con voz de mando
CON VOZ DE MANDO Y CON TROMPETA DE DIOS
A7 EN LOS CONFINES DE LA TIERRA SE OIRA
LA VOZ DE EL SEÑOR.
LOS MUERTOS EN CRISTO DE SUS TUMBAS VOLVERAN
Y LOS QUE VIVIMOS EN LAS NUBES NOS
LEVANTARA EL SEÑOR
Y EN UNA NUBE NOS LEVANTARA
Y TODO OJO ENTONCES LE VERA
AL CORDERO INMOLADO
A JESUS EL DESEADO
//LE VEREMOS TAL CUAL ES
EN SU GLORIA Y SU PODER//
LA MAYOR PARTE DE ESTAS NOTAS SON NOTAS ORIGINALES DE LA
CANCION,
DEDICO ESTA CANCION A MI AMIGO VICTOR GONZALEZ Y FAMILIA
EN LAWRENCE MASS.- DIOS LE BENDIGA




[Con voz de mando acordes][Con voz de mando chords]
© LaCuerda.net · notícia legal · privacidade · es · en · pt · contato
DINAMICO