Cifras para Violão e Guitarra » J »Jesús Adrián Romero » Me dice que me amas (Tab)

Me dice que me amas
Jesús Adrián Romero

Letras, cifras e tablaturas para violão, guitarra, piano, ukulele e baixo

  •     G
    Me dice que me ama
                   C
    Cuando escucho llover
            G
    Me dice que ama
             C
    Con un atardecer
               G
    Lo dice sin palabras
                    D
    Con las olas del mar
                Em
    Lo dice en la mañana
               C
    Con mi respirar
    
    “Coro”
    
                G              C              G
    
  • Intro: G - C - Am - D (Teclado)
    
                          C      Am            C      D
    
    e|-------10-10----10/12--10-7-8-8/7-------------|
    B|-10/12-------12-------------------10-8-----8--|
    G|---------------------------------------7/9----|
    D|----------------------------------------------|
    
                   G                      C
    Me dice que me ama cuando escucho llover,
                G                 C
    me dice que ama con un atardecer,
                   G     C        Em        D
    lo dice sin palabras, con las olas del mar,
                    Em                C   D
    lo dice en la mañana con mi respirar.
    
    Coro:
                          G             C             G   C  G
    
  • Intro   G -C Am D-Em Am C
    
                   Gmaj7
    Me dice que me ama
                       Cmaj7
    Cuando escucho llover
                   Gmaj7
    Me dice que me ama
                 Cmaj7
    Con un atardecer
                  Gmaj7
    Lo dice sin palabras
                     D/F#
    Con las olas del mar
                    Em7
    Lo dice en la mañana
                 Cmaj7
    Con mi respirar
                    Gmaj7
    Me dice que me ama
    
  •      Intro: G    C9     C/A      Dsus4    D  (acordes)
                GbDB ED  B   C   BAG   A   G  F# (melodia)
    
                                            (Se repite el intro dos veces)
    
                  G
    Me dice que me ama
                      Em/C
    Cuando escucho llover
                    G   G2
    Me dice que me ama
                Em/C
    Con un atardecer
                     G
    Lo dice sin palabras
                      D2
    Con las olas del mar
                    G/E
    Lo dice en la mañana
           D4 D  C2   D7
    
  • AQUÍ LES DEJO ME DICE QUE ME AMA VERSION REQUINTO.
    
    Inicia piano.
    Luego sigue el requinto:
    
    
    E------------------------------------------
    A---------------------------------4/6------
    D-7/9-----9------------------7—5-------5---
    G-----7-7----7/9-7---4-5—4/6---------------
    B------------------------------------------
    E------------------------------------------
    
    
    En la parte intermedio:
    Piano
    Luego otra vez requinto:
    
    E------------------------------------------
    A---------------------------------4/6------
    D-7/9-----9------------------7—5-------5---
    G-----7-7----7/9-7---4-5—4/6---------------
    B------------------------------------------
    E------------------------------------------
    
    
    
    Parte del final:
    
    E--------------------------------------------
    A-----------------------------------8-6-4---
    D-7/9-----9------------------7-5-7----------5
    G-----7-7----7/9-7---4-5-4/6-----------------
    B--------------------------------------------
    E--------------------------------------------
    
    
    
    ESPERO QUE LES SI
  • +
    ¡Colabora con nosotros!
    Envíanos tu versión de esta canción
  • Tutorial
    me dice que me ama intro tutorial guitarra
    10:01
  • Tutorial
    HD
    Me dice que me ama Acordes guitarra Tutorial
    6:45

Letra de Me dice que me amas
Me dice que me ama
Cuando escucho llover
Me dice que ama
Con un atardecer
Lo dice sin palabras
Con las olas del mar
Lo dice en la mañana
Con mi respirar
“Coro”
Me dice que me ama y que conmigo quiere estar
Me dice que me busca cuando salgo yo a pasear
Que ha hecho lo que existe para llamar mi atención
Que quiere conquistarme y alegrar mi corazón
II ESTROFA
Me dice que me ama
Cuando veo la cruz
Sus manos extendidas
Así tan grande es su amor
Lo dicen las heridas
De sus manos y pies
Me dice que me ama una y otra vez
Que Dios los bendiga muchisisismo y espero que asi como
esta cancion es de gran bendicion para mi vida, lo sea para ustedes
Si les agrada no duden en escribir a mi correo, bye Cuidense!!




[Me dice que me amas acordes][Me dice que me amas chords]
© LaCuerda.net · notícia legal · privacidade · es · en · pt · contato
DINAMICO