Cifras para Violão e Guitarra » J »José José » Me Basta (Tab)

Me Basta
José José

Letras, cifras e tablaturas para violão, guitarra, piano, ukulele e baixo

  •  A
    Sabes lo que dicen por ahi
                            E
    pobre ruise~or donde a caido
                     Bm7          E
    dicen que estoy ciego por tu amor
          Bm7 E         A
    y que tu juegas conmigo.
     A
    No te pido cuentas corazon
                                 E
    no quiero saber quien es tu due~no
                Bm7           E
    dame lo que tu me puedas dar
        Bm7 E           A
    corazon que yo lo acepto.
    
    (coro)
        D   Bm                   C#m
    Me basta con un poco de tu amor
    
  • D - Bm - C#m7 - Bm - E7
    
    e/-----3-----------------------
    B/-------4--4/3/0--------------
    G/-2/3-------------------------
    D/-----------------------------
    A/-----------------------------
    E/-----------------------------
    
    -2-4/5-4-2-4-0----------0-2/4-2-0-2--
    ------------------------------------3
    -------------------------------------
    -------------------------------------
    -------------------------------------
    -------------------------------------
    
    ---------------------10-8-10-8----8-10-8--------12
    ------11-8---------8------------11------------14--
    ----8------X4----8--------------------------14----
    -10-----------10----------------------------------
    
  •  A#
    Sabes lo que dicen por ahí
                               F7
    pobre ruiseñor, dónde ha caído
    
    dicen que estoy ciego por tu amor
          D# F7          A#
    y que tú  juegas conmigo.
    
    
    A#
    No te pido cuentas corazón
                                 F7
    no quiero saber quién es tu dueño
    
    dame lo que tú me puedas dar
        D#  F7
    corazón, que yo lo acepto.
    
    
    
  • A
    Sabes lo que dicen por ahi,
                               E7
    pobre ruiseñor, donde ha caido,
    dicen que estoy loco por tu amor,
           D  E7          A
    y que tu   juegas conmigo.
    
    A
    No te pido cuentas corazon,
                                 E7
    no quiero saber quien es tu dueño,
    dame lo que tu me puedas dar,
         D  E7            A 
    corazon,  que yo lo acepto.
    
    CORO:
        D     Bm                 C#m
    Me basta, con un poco de tu amor,
                        D
    
  • +
    ¡Colabora con nosotros!
    Envíanos tu versión de esta canción

Letra de Me Basta
Sabes lo que dicen por ahi
pobre ruise~or donde a caido
dicen que estoy ciego por tu amor
y que tu juegas conmigo.
No te pido cuentas corazon
no quiero saber quien es tu due~no
dame lo que tu me puedas dar
corazon que yo lo acepto.
Me basta con un poco de tu amor
el que tengas escondido
el que nadie haya querido
que mi no me importa no.
Me basta con un poco de tu amor
con lo que tengas guardado
con lo que hayas olvidado
con eso me quedo yo.
Sabes lo que dicen por ahi
pobre ruise~or le han sometido
dicen que estoy loco por tu amor
y es verdad loco perdido.
Y es verdad que aveces creo morir
quien te crees que soy yo siento celos
pero un dia tuve que elegir
y ya vez lo que prefiero.
(se repite el coro)




[Me Basta acordes][Me Basta chords]
© LaCuerda.net · notícia legal · privacidade · es · en · pt · contato
DINAMICO