Cifras para Violão e Guitarra » J »Juan Luis Guerra » Tú (Tab)


Juan Luis Guerra

Letras, cifras e tablaturas para violão, guitarra, piano, ukulele e baixo

  •    E                     C#m7
    e|-------------------------------------------------|
    B|---0-----0-------0----------4-----4-------4------|
    G|-1-----1-------1-----1----6---4-6---4-4-6---4-6--|
    D|-2---4-2---4-4-2---4-2----4-----4-------4-----4--|
    A|-------------------------------------------------|
    E|-0-----0-------0-----0---------------------------|
    
      F#m                      B7
    e|-------------------------------------------------|
    B|---2-----2-------2----------2-----2-------2------|
    G|-2---1-2---1-1-2---1-2----2-----2-------2-----2--|
    D|-2-----2-------2-----2----4---6-4---6-6-4---6-4--|  
    A|--------------------------2-----2-------2-----2--|
    E|-2-----2-------2-----2---------------------------|
    
    
    La segunda vez que repite la intro hay otra guitarra
    con lo siguente...
    
    
  • +
    ¡Colabora con nosotros!
    Envíanos tu versión de esta canción

Letra de Tú
La segunda vez que repite la intro hay otra guitarra
con lo siguente...
Tú, mientras más lo pienso
tú, llenaste mi tiempo
tú, la razón que me haces ser feliz
¿Qué más puedo yo pedir?
Tú, mil poemas tiernos
tú, todo mi recuerdo
tú, te sumerges con tu cuerpo en mi
¿Qué más puedo yo sentir?
C#m7/A
Tú, lo que más extraño
tú, mi mejor regalo
Tú en las horas de amor eterno
Tú cuando hablo tú cuando sueño
tú en las noches que trae el viento
todos mis versos mientras más los pienso
Tú en la lluvia gotas de cielo
tú en la orilla de mi silencio
Tú mi ternura mi compañero
*Lo que más quiero mientras más lo pienso
Tú, mi canción desnuda
tú, mi anhelo mi furia
tú, la razón que me hace ser feliz
¿Qué más puedo yo pedir?
Tú todo lo que callo
tú mi abecedario
tú te sumerges con tu cuerpo en mi
¿Qué más puedo yo sentir?
C#m7/A
Tú, lo que más extraño
tú, mi mejor regalo
* Tú lo que busco lo que mas quiero




[Tú acordes][Tú chords]
© LaCuerda.net · notícia legal · privacidade · es · en · pt · contato
DINAMICO