Cifras para Violão e Guitarra » K »Kevin Johansen » Mc Guevara o Che Donalds (Tab)

Mc Guevara o Che Donalds
Kevin Johansen

Letras, cifras e tablaturas para violão, guitarra, piano, ukulele e baixo

  • E||--6--6---5s6--6---3s5--5--|--L-3s5--5s3-------------|
    B||--8--8---6s8--8---4s6--6--|--L-4s6--6s4---4----L----|
    G||--------------------------|---------------5----L----|
    D||--------------------------|-------------------------|
    A||--------------------------|-------------------------|
    E||--------------------------|-------------------------|
    
    
    --------3---6---5--L----|-----||
    --4---4-4---8---6--L----|-----||
    --5---5-5---7---7--L----|-----||
    ------------------------|-----||
    ------------------------|-----||
    ------------------------|-----||
    
    
    ----------------
    L - nota ligada (en este caso, muestra sostenimiento del tiempo)
    S - deslizar nota
    
    
  • DOm                 DOm7                   DOm6 
    Todos se dejan la barba y el pelo como él
         FA 
    Pero no son como él 
    Todos declaran y hablan en nombre de él
    Como si fueran él
    Yo me pregunto que estará pensando él
    SI pudiera ver
    Cómo se llenan de plata hablando de él
    Sin saber nada de él
    
    
    SOL SOL# 
    Todos se compran la remerita del Che, si saber quién fue 
    SOL FA 
    Su nombre y su cara no paran de vender 
    
    
    
    DOm DOm7 DOm6 FA 
    
  • +
    ¡Colabora con nosotros!
    Envíanos tu versión de esta canción

Letra de Mc Guevara o Che Donalds
Todos se dejan la barba y el pelo como él
Pero no son como él
Todos declaran y hablan en nombre de él
Como si fueran él
Yo me pregunto que estará pensando él
Cómo se llenan de plata hablando de él
Sin saber nada de él
Todos se compran la remerita del Che, si saber quién fue
Su nombre y su cara no paran de vender
Parece McGuevaras, o CheDonald´s
Parece McGuevara’s o CheDonald’s
No es hermano de Fidel ni pariente de Pino’che’
El nació en la Argentina y salió a recorrer
No es de la época de Evita y a pesar del musical
Nunca fue asistente de Peron, el General
Yo me pregunto por qué le tocó a él
Ser Jesucristo al final del milenio, che, eh, Che…
(Y lo mataron como un perro en Bolivia)
Vuelve y vuelve mil veces al que matan así
O es que al final nunca muere
El que no teme morir
Parece McGuevara’s o CheDonald’s




[Mc Guevara o Che Donalds acordes][Mc Guevara o Che Donalds chords]
© LaCuerda.net · notícia legal · privacidade · es · en · pt · contato
DINAMICO