Cifras para Violão e Guitarra » L »Leiva » Sincericidio (Tab)

Sincericidio
Leiva

Letras, cifras e tablaturas para violão, guitarra, piano, ukulele e baixo

  • Intro: Am E F C (x2)
    
    Am            E7
    No, no, no lo voy a decir
    F                  C
    si me lo pides tanto.
    Am                   E7
    No voy a hacerlo por ti;
    F                   C
    no quiero darte tanto.
    
    Dm             Am
    Solo me sale a mí.
    F                   C
    Nunca lo dije en alto,
    Dm               G
    pero basta de fingir:
    F
    Te quieeeeero;
    Am          G
    
  • Am    C (x4)
    
    Estrofa
    
    Am                E7
       No, no, no lo voy a decir
    F                  C
       si me lo pides tanto
    Am                      E7
       no voy a hacerlo por ti
    F                   C
       no quiero darte tanto
    G                  Am
       Solo me sale a mí
    F                    C
       Nunca lo dije en alto
    Dm                 G
       pero basta de fingir
    
            Dm          F        (G)
    
  •  Intro: Am, C, Am, C (x2)
    
    Am         Em
     No,no, no lo voy decir.
     F               C
     Si me lo pides tanto,
    Am            Em
     No voy a hacerlo por ti,
    F                 C
     No quiero darte tanto
    Am              Em
     Sólo me sale a mí.
    F                 C
     No te lo dije en alto
        Dm           G
    Pero basta de fingir.
    
      Dm               F
    Te quieeeero, te quieeeero,
     C
    
  • Intro:Am C F C
          Am C F C
    
    Am            Em
    No, no, no lo voy a decir
    F               C
    si me lo pides tanto.
    Am                   Em
    No voy a hacerlo por ti;
    F                C
    no quiero darte tanto.
    
    G              Am
    Solo me sale a mí.
    F                C
    Nunca lo dije en alto,
          Dm          G
    pero basta de fingir:
          Dm
    Te quieeeeero;
    
  • E |---------------------------------------------------------------------------
    B |-1~---------------1~--------------1~----1~------------------1~-----------1-
    G |-2~---------------0--0~--------0--2~------2~-----2p0--------0~--------0----
    D |-2~---------------2----2~----2----2~------------------2p0---2~--------0h2--
    A |-0~-----0---0--3--3~--------------0~------------------------3~------3------
    E |----------3----------------------------------------------------------------
    
    
    E |---------------------------------------------------------------------------
    B |-1~---------------1~--------------1~----1~------------------1~-------------
    G |-2~---------------0--0~--------0--2~------2~-----2p0--------0~-------------
    D |-2~---------------2----2~----2----2~------------------2p0---2~-------------
    A |-0~-----0---0--3--3~--------------0~------------------------3~-------------
    E |----------3----------------------------------------------------------------
    
    
    Am             Em        F                C
    No, no, no lo voy decir. Si me lo pides tanto,
    Am                   Em   F                C
    No voy a hacerlo por ti, No quiero darte tanto
    
  • --------------------------------------------------------------
    -------------------------------1------------------------------
    ------------------0-------0-2-----2--2--0---------------------
    ----------------2---2--2-------------------2--0-----2--0------
    ---0--0---0--3-----------------------------------3------------
    --------3-----------------------------------------------------
    
    LAm      MIm
    No,no, no lo voy decir.
    
    FA             DO
    Si me lo pides tanto,
    
    LAm             MIm
    No voy a hacerlo por ti,
    
    FA             DO
    No quiero darte tanto
    
    SOL         LAm
    
  • +
    ¡Colabora con nosotros!
    Envíanos tu versión de esta canción
  • Tutorial
    HD
    LEIVA - Sincericidio ( Tutorial )
    19:10

Letra de Sincericidio
No,no, no lo voy decir.
Si me lo pides tanto,
No voy a hacerlo por ti,
No quiero darte tanto
Sólo me sale a mí.
No te lo dije en alto
Pero basta de fingir.
Te quieeeero, te quieeeero,
Te quiero cuando me destrozas,
Te quiero con indecisión,
Te quiero con las alas rotas,
Aunque no haya explicación.
Te quiero a reventar la boca,
Te quiero aunque no vuelvas hoy,
Te quiero como tantas cosas
Que no tienen solución...
Que no tienen solución
(Después se repite todo.)
No, no, no voy mentir,
Te va a salir barato.
No voy a hacerte feliz,
No puedo darte tanto.
Quiero dejarlo así,
Nunca lo dije en alto.
Pero basta de fingir
Te quieeeero, te quieeeero,
Te quiero cuando me destrozas,
Te quiero con indecisión,
Te quiero con las alas rotas,
Aunque no haya explicación.
Te quiero a reventar la boca,
Te quiero aunque no vuelvas hoy,
Te quiero como tantas cosas
Que no tienen solución.
Te quiero a reventar la boca,
Te quiero aunque no vuelvas hoy,
Te quiero como tantas cosas
Que no tienen solución,
Que no tienen solución.




[Sincericidio acordes][Sincericidio chords]
© LaCuerda.net · notícia legal · privacidade · es · en · pt · contato
DINAMICO