Cifras para Violão e Guitarra » L »Luis Alberto Spinetta » Agnus Dei (Tab)

Agnus Dei
Luis Alberto Spinetta

Letras, cifras e tablaturas para violão, guitarra, piano, ukulele e baixo

  • Intro: G - G7:320031
    
    C   G     Am            G
    Ana lloro Gustavo se fue al cielo
    F     D:×01212  C                    G
    Estos problemas son los que rayan a mamá
    Am               E
    Qué acude a socorrerlos
    
     Riff1:                          ×3
    e|-------------------------------||
    B|---0--0--0--0--0--0--0--0------||
    G|--0--0--0--0--0--0--0--0-------||
    D|-------------------------------||
    A|-6--5--3--5--3--2--3--2--------||
    E|--------------------------4--4-||
    
        C                     C
    e|--------0-1-3-1h3h1h0-1--||
    B|-----1-3---------------0-||
    
  • +
    ¡Colabora con nosotros!
    Envíanos tu versión de esta canción

Letra de Agnus Dei
Ana lloro Gustavo se fue al cielo
Estos problemas son los que rayan a mamá
Qué acude a socorrerlos
Riff1: -3
Basta una carpa bastones en el cuerpo
Estos espectros son los que asoman al azar
Superando el cálculo.
Riff1 otra vez y empieza un instrumental muy psicodelico.




[Agnus Dei acordes][Agnus Dei chords]
© LaCuerda.net · notícia legal · privacidade · es · en · pt · contato
DINAMICO