Cifras para Violão e Guitarra » M »Maná » Corazón Espinado (Tab)

Corazón Espinado
Maná

Letras, cifras e tablaturas para violão, guitarra, piano, ukulele e baixo

  • Intro: Bm - G - F#  <-(MAYOR!!, si mayor)
    (el Bm y el G, son mas cortos que el F#)
    
    Bm     G       F#
      Esa mujer me esta matando
    Bm          G           F#
      me ha espinado el corazon
    Bm             G           F#
      por mas que trato de olvidarla
        Bm G         F#
    mi alma no da razon
    
    MI corazon aplastado
    dolido y abandonado
    a ver a ver tu sabes dime mi amor
    cuanto amor di que dolor nos quedo
    
    coro
    Bm G  F#         Bm              G        F#
    Ah ah ay corazon espinado (como duele me duele mama)
    
  •       Am  E  Am  E
    
    Am                   E
    Esa mujer me está matando
    Am                    E
    Me ha espinado el corazón
    Am                       E
    Por más que trato de olvidarla
    Am               E
    Mi alma no da razón
    Am              E
    Mi corazón aplastado
    Am             E
    Dolido y abandonado
             Am          E
    A ver a ver tú sabes dime mi amor
             Am                    E
    Cuánto amor y que dolor nos quedó
    Am         E              Am
    ¡Ah, ah, ay! corazón espinado
    
  • MI corazón aplastado
    
    
    
    
    
    
    1|----------5----------------------------------------------|
    2|-------------8--7--5-----5-------7-5-7~------------------|
    3|----------------------7----------------------------------|
    4|---------------------------------------------------------|
    5|---------------------------------------------------------|
    6|---------------------------------------------------------|
    
    
    dolido y abandonado
    a ver a ver
    
    
    
    
  • e ----------------------7-6------------------------
    b --------------------7-----7--------7-------------
    g --------4-7-4---4-7---------9-7-9b---9-6-7-9-----
    d ----4-7-------7----------------------------------
    a -------------------------------------------------
    e -------------------------------------------------
    
    
    e -------7-10-7----7-------14-18b-18-14----------14---14--14--14--14-----
    b --7-10--------10---15-----------------17-15-17b--17b--17b-17b-17b-17b--
    g -----------------------------------------------------------------------
    d -----------------------------------------------------------------------
    a -----------------------------------------------------------------------
    e -----------------------------------------------------------------------
    
    
    e -----------------------------
    b --17-14-15-17-15-14-14-------
    g -----------------------15b---
    d -----------------------------
    
  • -|----------------------------7-6-----------------------------|
    -|--------------------------7------7--------------------------|
    -|-----4h7p4---4---------/7----------9--7-9^9^--------9-6-7-9-|
    -|-4h7-------7------------------------------------------------|
    -|------------------------------------------------------------|
    -|------------------------------------------------------------|
                                                                                  
    -|------7h10p7----7------------14-17^r--14-----------14------14----14--
    -|-7h10--------10----------/17-------------17--15-17^----17^----17^----
    -|---------------------------------------------------------------------
    -|---------------------------------------------------------------------
    -|---------------------------------------------------------------------
    -|---------------------------------------------------------------------
                                                                                  
    --------------------------------|
    --17-14-15-17---15-14-14--------|
    --------------------------16----|
    --------------------------------|
    --------------------------------|
    --------------------------------|
    
  • MI corazón aplastado
    
    1|-------------------------||
    2|--10-8-7-----------------||
    3|---------9-7-9-11-9//11--||
    4|-------------------------||
    5|-------------------------||
    6|-------------------------||
    
    dolido y abandonado
    a ver a ver tu sabes dime mi amor
    
    1|-----------||
    2|-----------||
    3|------6-7--||
    4|----9------||
    5|--9--------||
    6|-----------||
    
    cuanto amor y que dolor nos quedó
    
  • bueno esta es una cancion muy buena pero mui facil espero
    ke les guste y ke no ste mal xD
    
    INTRO
    3 Compaces de piano y organo.
    
    G: |--------|
    D: |--------|
    A: |--------|
    E: |-----14/|
    
    G: |-------------------|-------------------|(2x)
    D: |-------------------|-------------------|
    A: |---5-5-------4---4-|---5-5-------4---4-|
    E: |-7-----2-2-6---6---|-7-----2-2-6---6---|
    
    VERSO 1
    G: |-----------------|-----------------|(4x)
    D: |-----------------|-----------------|
    A: |---5-------4---4-|---5-------4---4-|
    E: |-7---2-2-6---6---|-7---2-2-6---6---|
    
    CORO 1
    G: |-------------------|-------------------|(2x)
    D: |-------------------|-------------------|
    A: |---5-5-------4---4-|---5-5-------4---4-|
    E: |-7-----2-2-6---6---|-7-----2-2-6---6---|
    
    VERSO 2
    G: |-------------------|-------------------|(2x)
    D: |-------------------|-------------------|
    A: |---5-5-------4---4-|---5-5-------4---4-|
    E: |-7-----2-2-6---6---|-7-----2-2-6---6---|
    
    
    G: |-----------------|-----------------|
    D: |-----------------|----
  • Esta cancion la verdad esta sencilla, y ademas es muy buena, una delas mejores
    de mana...
    traten de tocarla, se escucha de pelos...
    alex es una piola para esto
    
    H-crash
    h-contras
    s-splash
    t-tarola
    R-ride
    t1-tomb izquierdo
    t2-tomb derecho
    t3-tomb izquierdo
    b-bombo
    r-se pega en el aro de la tarola
    f-flam
    r-roll
    
    vamonos....
    intro
    H |-------x-------------------------------------------------------------x-x--|
    h |---------x-x-x-x-x-x-x-x-x-x-x-x-x-x-x-x-x-x-x-x-x-x-x-x-x-x-x-x-x-x------|
    t |-f-----------o-------o-------o-------o-------o-------o-------o-------o----|
    t1|---f----------------------------------------------------------------------|
    t2|--------------------------------------------------------------------------|
    t3|-----f--------------------------------------------------------------------|
    b |-------o-------o-o----o--------o-o-------o-----o-o----o--------o-o--------|
    
          esa mujer me esta...             me ha espinado.....      
    H |-x-----------------
  • Se toca con armónica en DO, las - son aspiradas y las demas
    sopladas. Las ** quiere decir 2 bendings aspirados.
    
    
    
    Corazon Espinado
    
    
    5 7  7 7   -7  7  -7 7 -7
    Esa mujer me está matando,
     -6  -7 7 -8  7   -7  -7
    me ha espinado el corazón,
    5    8   7   8  7 -7 7  -8  -7
    por más que trato de olvidarla
    -7 7  7  7 -7  7 -7
    mi alma no da razón.
    -6 -7 7 -9  -9 8 -9 8
    Mi corazón aplastado,
    7  7 7  7  8  7 -8 -7
    dolido y abandonado
    -6 -6    -7 7   -6  7 -6   8 -8  7 -8
    ¡A ver! ¡A ver! Tú sabes, dime mi amor
       8   8  8    -8  -8 -8 -8   8 -8 7
    ¿Cuánto amor y qué dolor nos quedo?
    
    -6   7   -7  -7-7 7  -7-6-6 5
    Aah aah ¡ay! Corazón espinado.
     8  8   8 8   8  -8-7  7 -8
    ¡Cómo duele, me duele mamá!
    -6   7   -7  -7 -7-7  7 -7  -6 -6
    Aah aah ¡ay! Cómo me duele el amor.
    
     8  8  8 8    8 8  -9 8  -8  7 -8
    ¡Cómo duele! Cómo duele el corazón
      7   7   7    7   8   7 -8 -7
    cuando uno es bien entregado,
     7  7  -6  7 7  -6 7    8  8 -8   -7 7 -8
    pero no olvides mujer, que algún día
  • +
    ¡Colabora con nosotros!
    Envíanos tu versión de esta canción
  • Tutorial
    Como tocar Corazon espinado en guitarra con GUITAR PRO
    4:33
  • Tutorial
    Como tocar corazon espinado muy facil.
    2:15
  • Tutorial
    Corazón Espinado - Maná Tutorial Guitarra Tablaturas Intro (Como tocar)
    2:44

Letra de Corazón Espinado
Esa mujer me está matando
Me ha espinado el corazón
Por más que trato de olvidarla
Mi alma no da razón
Mi corazón aplastado
Dolido y abandonado
A ver a ver tú sabes dime mi amor
Cuánto amor y que dolor nos quedó
¡Ah, ah, ay! corazón espinado
(Cómo duele me duele mamá)
¡Ah, ah, ay! cómo me duele el amor
Y cómo duele, cómo duele el corazón
Cuando uno es bien entregado
Pero no olvides mujer que algun día dirás
¡Ay ay ay! como me duele el amor
¡Ah, ah, ay! corazón espinado
(Cómo duele me duele mamá)
¡Ah, ah, ay! cómo me duele el amor
¡Ah, ah, ay! corazón espinado
¡Ah, ah, ay! cómo me duele el amor
Cómo me duele el olvido
Cómo duele el corazón
Cómo me duele el estar vivo
Sin tenerte a un lado amor




[Corazón Espinado acordes][Corazón Espinado chords]
© LaCuerda.net · notícia legal · privacidade · es · en · pt · contato
DINAMICO