Cifras para Violão e Guitarra » M »Marea » Que se joda el viento (Tab)

Que se joda el viento
Marea

Letras, cifras e tablaturas para violão, guitarra, piano, ukulele e baixo

  • Am  Dm  G      |
                | x4 (en las 2 ultimas se ace un toke en Dm 
    Am  Dm  F  G        |     y otro breve despues otra vez en Am)
    
    Am                    G
    Ponte el moño apretao sirena, k se joda el viento
    Am                    F        G
    Rompe las orkillas de espuma
    Am                G
    Y dejame k te remache sonrisas de hierro
    Am                    F      G
    De esas k disipan las brumas
    Am                      G
    Y se k entre los males nos lloveran cristales
    Am                    F        G
    Yo ire descalzo y tu desnuda
              Am              G            Am      F      G
    Al son del amor, del ronco tambor k toke la luna
    
    Am  Dm  Am  G        |
    
  • e|-----------|-------------|-----------|---------------------|
    B|-----------|-------------|-----------|---------------------|
    G|-9-9-10--7-|-9-9-10--5-7-|-9-9-10--7-|-9-9-10--5-5-5-7-7-7-|
    D|-7-7-7---7-|-7-7-7---3-5-|-7-7-7---7-|-7-7-7---3-3-3-5-5-5-|
    A|-----------|-------------|-----------|---------------------|
    E|-----------|-------------|-----------|---------------------|
    
    e|----------------------------|------------------------------|
    B|----------------------------|------------------------------|
    G|-9-9-10-9-------5-4---5-4-4-|-9-9-10-9---------------------|
    D|-7-7-7--7--3/-5-----5-------|-7-7-7--7-----5-4-------7-5-4-|
    A|----------------------------|----------2-3-----3-3-5-------|
    E|----------------------------|------------------------------|
    
    e|------------------------------|--------------------------5-|
    B|------------------------------|--------------------------5-|
    G|--9-9-10-9-------5-4---5-4-4--|--9-9-10-9---5-5-5-7-7-7--5-|
    D|--7-7-7--7---3-5-----5--------|--7-7-7--7---3-3-3-5-5-5--7-|
    A|------------------------------|--------------------------7-|
    E|------------------------------|--------------------------5-|
    
  • e|---------------------------------------------------
    B|--------3~-------------1~--3~------------3~--------
    G|--9-10--4~-------9-10--2~--4~------9-10--4~--------
    D|--7-7---5~-------7-7---3~--5~------7-7---5~--------
    A|---------------------------------------------------
    E|---------------------------------------------------
    
    
    e|---------------------------------------------------
    B|---------------------------10~---------------------
    G|-------9-10--5-5-5--7-7-7--9~----------------------
    D|-------7-7---3-3-3--5-5-5--7~----------------------
    A|---------------------------------------------------
    E|---------------------------------------------------
    
    
    e|---------------------------------------------------
    B|---------------------------------------------------
    G|-------9-10-9---------5-4---5-4--------------------
    D|-------7-7-7----2/3-------5------------------------
    
  •  LA5
    I---------------------------------------I
    I-----------------------------3r--------I
    I-------------------9r--10r---4r--------I
    I-------------------7r--7r----5r--------I
    I-0-0-0-0-0-0-0-0-0-0-0-0-0-0-0-0-0-0-0-I
    I---------------------------------------I
     LA5
    I---------------------------------------------------I
    I-------------------------------1r----3r------------I
    I-------------------9r-10r------2r----4r------------I
    I-------------------7r-7r-------3r----5r------------I
    I-0-0-0-0-0-0-0-0-0-0-0-0-0-0-0-0-0-0-0-0-0-0-0-0-0-I
    I---------------------------------------------------I
     LA5
    I---------------------------------------I
    I-----------------------------3r--------I
    I-------------------9r--10r---4r--------I
    I-------------------7r--7r----5r--------I
    I-0-0-0-0-0-0-0-0-0-0-0-0-0-0-0-0-0-0-0-I
    
  • +
    ¡Colabora con nosotros!
    Envíanos tu versión de esta canción
  • Tutorial
    HD
    COMO TOCAR QUE SE JODA EL VIENTO/MAREA (COMPLETA)
    17:26

Letra de Que se joda el viento
| x4 (en las 2 ultimas se ace un toke en Dm
Ponte el moño apretao sirena, k se joda el viento
Rompe las orkillas de espuma
Y dejame k te remache sonrisas de hierro
De esas k disipan las brumas
Y se k entre los males nos lloveran cristales
Yo ire descalzo y tu desnuda
Al son del amor, del ronco tambor k toke la luna
| x2
Vamos a trepar a la copa de este sol de enero
Y a hacer un nido en su ramaje
Y alli reirnos viendo como a cada minutero
se lo devora el oleaje
K kuando entre mis brazos resuenen cañonazos
Yo ire perdido entre tus dunas
Dejándolo todo, kemando los tronos, donde reinen dudas...
ESTRIBILLO
Y bañate en mis ojos, k se joda el mar k kiera mecerte a su antojo...
Si no somos nadie, nadie va a encontrar
Y si a las heridas kiere exarles sal solo va a encontrarse cerrojos
Y las cicatrices de la soledad...
(Aora viene un punteo k no puedo poner aki xo k viene akompañado con los
akordes d la primera parte (2 veces) y los del estribillo (otras 2)...)
Coge resina para untarnos poco a poco el cuerpo
por si vuelve la ventolera
Y mientras tanto entre los huecos k nos deje el tiempo
Deja volar tu cabellera
K si a nuestra locura vuelven nubes oscuras
Nos cogeran frente con frente y codo con codo
Cada vez mas solos, rodeados de gente...
ESTRIBILLO
Y bañate en mis ojos, k se joda el mar k kiera mecerte a su antojo...
Si no somos nadie, nadie va a encontrar
Y si a las heridas kiere exarles sal solo va a encontrarse cerrojos
Y las cicatrices de la soledad...
Y bañate en mis ojos, k se joda el mar k kiera mecerte a su antojo...
Si no somos nadie, nadie va a encontrar
Y si a las heridas kiere exarles sal solo va a encontrarse cerrojos
Y las cicatrices...




[Que se joda el viento acordes][Que se joda el viento chords]
© LaCuerda.net · notícia legal · privacidade · es · en · pt · contato
DINAMICO