Cifras para Violão e Guitarra » M »Miguel Bosé » Tú mi salvación (Tab)

Tú mi salvación
Miguel Bosé

Letras, cifras e tablaturas para violão, guitarra, piano, ukulele e baixo

  •  G    C      Em        D     C
    1.--------------------------------
    2.--------------------------------
    3.-----------0----0---------------
    4.-------0-----4----0---0---------
    5.-0-2-3------------------3--3-2--
    6.--------------------------------
    
    G   Am     Em        Am        G D G
    1.-------------------------------------------------------------
    2.-----------1-0-1-------0-------------------------------------
    3.-----------------2---2---0-------0---0-----------------------
    4.-----0-2---------------------0-----4-------------------------
    5.-2-3---------------------------3-----------------------------
    6.-------------------------------------------------------------
    
    
    
    G        C               Em           D    C
    Así fue como todo empezó
    
  • +
    ¡Colabora con nosotros!
    Envíanos tu versión de esta canción

Letra de Tú mi salvación
Así fue como todo empezó
Tu decías que pasará, para que volverlo a intentar
Y poco a poco entraste en mi dulcemente
Siento que esta vez perdí, ya no sé, vivir sin ti
Tu... Tu...
Tu... Tu...
Mi salvación
Todo lo que siento, todo lo que digo
Pasa por el filtro de tu mano
Todo lo que veo, todo al rededor
Lleva tu nombre escondido
Tu modo de hablar, el olor de un perfume
La brisa del mar, cuanto esconde lo que amo
El aire que se calla para hacerme escuchar tu voz
Tu... Tu...
Tu... Tu...
Mi salvación
Toda una vida vamos ya, juntos, juntos
Nadie podría ocupar, tu lugar, tu lugar en mi corazón
Quisiera darte algo especial tuyo, tuyo
Por eso hice esta canción, para decirte cuanto cabe mi amor
Todo lo que siento, todo lo que digo
Pasa por el filtro de tu mano
Todo lo que veo, todo al rededor
Lleva tu nombre escondido
Tu modo de hablar, el olor de un perfume
La brisa del mar, cuanto esconde lo que amo
El aire que se calla para hacerme escuchar tu voz
Tu... Tu...
Tu... Tu...
Mi salvación
Así fue como todo empezó
Una bella historia de amor
Entre tú y yo, que nunca acabo




[Tú mi salvación acordes][Tú mi salvación chords]
© LaCuerda.net · notícia legal · privacidade · es · en · pt · contato
DINAMICO