Cifras para Violão e Guitarra » M »Miguel y Miguel » Ojitos negros (Tab)

Ojitos negros
Miguel y Miguel

Letras, cifras e tablaturas para violão, guitarra, piano, ukulele e baixo

  • A
    ojitos negros y encantadores
                                   E7
    quien los tuviera a un lado de mi
                 D      E7      A
    me puede mucho bien de mi vida
             E7             A
    vivir ausente lejos de ti
    
    me encuentro lejos vivo pensando
    solo en la ausencia de esa mujer
    ojitos negros encantadores 
    que si Dios quiere los vuelvo a ver
    
    dile a tus pares y a tus hermanos
    que es un capricho el que vas a hacer
    que no te digan que no te cuenten 
    que tu me quieres y yo tambien
    
    aqui te dejo estas tres canciones
    
  • e|----0---4-2-0-----0---4-2-0---5-5---4-4---2---0-0-----|
    B|--2-2---5-3-2---2-2---5-3-2---7-7---5-5---3---2-2-2-3-|
    G|--2-------------2---------------------------------2-4-|
    D|------------------------------------------------------|
    A|------------------------------------------------------|
    E|------------------------------------------------------|
    
    e|--4-4--4-4-2---0-5-4-2-0---5-4-2-0-----2-0------------|
    B|--5-5--5-5-3---2-7-5-3-2---7-5-3-2-3---3-2-3-2--------|
    G|-----------------------------------4-------4-2--------|
    D|------------------------------------------------------|
    A|------------------------------------------------------|
    E|------------------------------------------------------|
    
    A
    ojitos negros y encantadores
                                   E7
    quien los tuviera a un lado de mi
                                A
    me puede mucho bien de mi vida
    
  • +
    ¡Colabora con nosotros!
    Envíanos tu versión de esta canción

Letra de Ojitos negros
ojitos negros y encantadores
quien los tuviera a un lado de mi
me puede mucho bien de mi vida
vivir ausente lejos de ti
me encuentro lejos vivo pensando
ojitos negros encantadores
que si Dios quiere los vuelvo a ver
dile a tus pares y a tus hermanos
que es un capricho el que vas a hacer
que no te digan que no te cuenten
que tu me quieres y yo tambien
aqui te dejo estas tres canciones
pa que las cantes yo ya me voy
pa que las cantes con tu boquita
que son recuerdos que yo te doy




[Ojitos negros acordes][Ojitos negros chords]
© LaCuerda.net · notícia legal · privacidade · es · en · pt · contato
DINAMICO