Cifras para Violão e Guitarra » M »Música Católica » Alma misionera (Tab)

Alma misionera
Música Católica

Letras, cifras e tablaturas para violão, guitarra, piano, ukulele e baixo

  •   G   D              Em
    Señor, toma mi vida nueva
    C                  G
    Antes de que la espera
    C                  D  Dsus D
    desgaste años en mi
       G      D              Em
    estoy dispuesto a lo que quieras
    C                   G
    no importa lo que sea
    C     D         G      D7
    tu llámame a servir...
    
    ESTRIBILLO
        G                   D
        Llévame donde los hombres
            Em           C
        necesiten tus palabras
            G      C              D      Dsus
        necesiten mis ganas de vivir (de vivir)
    
  •    G   D              Em
    Señor, toma mi vida nueva
    C                  G
    Antes de que la espera
    C                  D
    desgaste años en mi
       G      D              Em
    estoy dispuesto a lo que quieras
    C                   G
    no importa lo que sea
    C     D         G      D7
    tu llámame a servir...
         G                   D
        Llévame donde los hombres
            Em           C
        necesiten tus palabras
            G      C              D
        necesiten mis ganas de vivir (de vivir)
               G            D
        donde falte la esperanza
    
  •    FA  DO             REm
    Señor, toma mi vida nueva
    LA#                FA
    Antes de que la espera
    LA#                DO
    Desgaste años en mi
    
       FA  DO             REm
    Estoy dispuesto a lo que quieras
    LA#                FA
    No importa lo que sea
    LA#    DO       FA     DO7
    Tu llámame a servir...
    
    
    CORO:
    FA                  DO
    Llévame donde los hombres
      REm           LA#
    Necesiten tus palabras
    
  • e--0---------0-2-2-3--3-3-3-2-0-0--------------0--------
    B----3--3-3-3---------------------3--3-3-3-3-3----3-----
    G-------------------------------------------------------
    D-------------------------------------------------------
    A-------------------------------------------------------
    E-------------------------------------------------------
    
    e -0---------0-2-2-3--3-3-3-5-7-7-8--7-7-5-5-3----------
    B ---3--3-3-3----------------------3--------------------
    G-------------------------------------------------------
    D-------------------------------------------------------
    A-------------------------------------------------------
    E-------------------------------------------------------
    
    e-3-5-7-7-8-7-5-5--7-5-3-0-3-0-3-0--3-5-7-3---7-7-5-3-5-
    B-------------------------------------------3-----------
    G-------------------------------------------------------
    D-------------------------------------------------------
    A-------------------------------------------------------
    E----------------------------
  • +
    ¡Colabora con nosotros!
    Envíanos tu versión de esta canción

Letra de Alma misionera
Señor, toma mi vida nueva
Antes de que la espera
desgaste años en mi
estoy dispuesto a lo que quieras
no importa lo que sea
tu llámame a servir...
Llévame donde los hombres
necesiten tus palabras
necesiten mis ganas de vivir (de vivir)
donde falte la esperanza
donde todo sea triste
simplemente por no saber de ti
TE doy mi corazón sincero
para gritar sin miedo, tu grandeza Señor
tendré mis manos sin cansancio
tu historia entre mis labios
y fuerza en la oración...
Y así en marcha iré cantando
por calles predicando
lo bello que es tu amor
Señor tengo alma misionera
condúceme a la tierra que tenga sed de TI




[Alma misionera acordes][Alma misionera chords]
© LaCuerda.net · notícia legal · privacidade · es · en · pt · contato
DINAMICO