Cifras para Violão e Guitarra » M »Música Católica » El amor de dios es maravilloso (Tab)

El amor de dios es maravilloso
Música Católica

Letras, cifras e tablaturas para violão, guitarra, piano, ukulele e baixo

  • RE                                   LA7
    
    El amor de Dios es maravilloso.
    
    LA7                                 RE
    
    El amor de Dios es maravilloso.
    
    RE               RE7               SOL
    
    El amor de Dios es maravilloso.
    
        LA7                           RE
    
    ¡Grande es el amor de Dios!
    
     
    
    RE                                      LA7
    
    
  • ahí la tienen, la saqué a oído así
    que no está perfecta, pero ustedes
    la pueden mejorar
    
      El amor de Dios es maravilloso
    e|-3-1-0--0---0--0---0-3-3-1-----
    B|----------3------3-------------
    G|-------------------------------
    D|-------------------------------
    A|-------------------------------
    E|-------------------------------
    
      el amor de Dios es maravilloso
    e|-1-0-----------------1-1-0-----
    B|-----3--3-1-3--3-1-3-----------
    G|-------------------------------
    D|-------------------------------
    A|-------------------------------
    E|-------------------------------
    
      el amor de Dios es maravilloso
    e|-3-1-0--0---0--0---0-3-3-1-----
    B|----------3------3-------------
    G|-------------------------------
    D|-------------------------------
    A|-------------------------------
    E|-------------------------------
    
    grande es el amor de Dios.
    e|-----3-3-3-1-0---------
    B|---------------3-1-----
    G|-----------------------
    D|-----------------------
    A|-----------------------
    E|-----------------------
    
    
      Tan g
  • +
    ¡Colabora con nosotros!
    Envíanos tu versión de esta canción
  • Tutorial
    El amor de Dios es maravilloso tutorial de ritmo
    2:27

Letra de El amor de dios es maravilloso
El amor de Dios es maravilloso.
El amor de Dios es maravilloso.
El amor de Dios es maravilloso.
¡Grande es el amor de Dios!

Tan alto que no puedo estar más alto que El.
Tan bajo que no puedo estar más bajo que El.
Tan ancho que no puedo estar afuera de El.
¡Grande es el amor de Dios!




[El amor de dios es maravilloso acordes][El amor de dios es maravilloso chords]
© LaCuerda.net · notícia legal · privacidade · es · en · pt · contato
DINAMICO