Cifras para Violão e Guitarra » M »Música Católica » La Guadalupana (Tab)

La Guadalupana
Música Católica

Letras, cifras e tablaturas para violão, guitarra, piano, ukulele e baixo

  • G
    DESDE EL CIELO UNA HERMOSA MAÑANA (2)
               C              G
    LA GUADALUPANA, LA GUADALUPANA
                D7             G
    LA GUADALUPANA BAJO AL TEPEYAC (2)
    
    Suplicante juntaba sus manos (2)
    Y eran mexicanos, y eran mexicanos
    Y eran mexicanos su porte y su faz (2)
    
    Su llegada llenó de alegría(2)
    De luz y armonía, de luz y armonía
    De luz y armonía todo el Anahuac (2)
    
    Junto al monte pasaba Juan Diego(2)
    Y acercose luego, y acercose luego
    Y acercose luego al oír cantar (2)
    
    Juan Dieguito la Virgen le dijo (2)
    
  • RE
    Camino de la ciudad
                          LA7
    un buen indio una mañana
    cuando al Templo iba a rezar
    y al pasar por Tepeyac
    se le iluminó la cara
                       RE
    y allí se puso a rezar.
    
    Cuando Juan Diego contó
    lo que le había pasado
    ¡que falta de devoción!
    que hasta el Obispo dudó
    que un indio desarrapado
    viera a la Madre de Dios.
    
    SOL                             RE
    AL SER DE DÍA, AVE MARÍA, UNA MAÑANA
                                      LA7
    
  • 1.--------7-5---7-5-------------7-5---7-5--------
    2.------8-----8-----8---------8-----8-----8------
    3.--7-7---------------7---7-7---------------7----
    
    1.----------10-8-8----------8-7-7-------7-5-5----5-5----
    2.-12-12-12--------10-10-10-------8-8-8-----------------
    3.--------------------------------------------7-7----7--
    
    G
    DESDE EL CIELO UNA HERMOSA MAÑANA (2)
    G7        C             G
    LA GUADALUPANA, LA GUADALUPANA
                D7             G
    LA GUADALUPANA BAJO AL TEPEYAC (2
    
    
    G
    suplicante juntaba sus manos (2)
    G7          C                G
    y eran mexicanos   y era mexicano
    
  • La tablatura de la guadalupana
    
    e:-----3-7-5-3-7-5-3-----------3-7-5-3-7-5-3----
    B:-3-3---------------3-----3-3---------------3--
    G:----------------------------------------------
    
    e:-7-7-7-10-8-8--5-5-5-8-7-7--3-3-3-7-5-5-5-3-5-7-3---
    B:----------------------------------------------------
    G:----------------------------------------------------
    
    e:-7-7-7-10-8-8--5-5-5-8-7-7--3-3-3-7-5-5-5-3-5-7-3---
    B:----------------------------------------------------
    G:----------------------------------------------------
  • Carnalitos aquí les dejo mi primer colaboración, de esta
    tradicional canción “La guadalupana”.
    es un tab para mandolina, ya que estuve buscando en línea
    y no encontré ninguna para este instrumento
    ojala les agrade.
    se aceptan correcciones y criticas,
    si existe algún error disculpen es mi primer trabajo y fue a oído.
    
    e:----------------------------------------------
    a:-----0-4-2-0-4-2-0-----------0-4-2-0-4-2-0----
    D:-0-0---------------0-----0-0---------------0--
    G:----------------------------------------------
    
    e:---------------------------------------------------
    a:-4-4-4-7-5-5--2-2-2-5-4-4--0-0-0-4-2-2-0-2-4-4-0---
    D:----------------------------------------------------
    G:----------------------------------------------------
    
    e:---------------------------------------------------
    a:-4-4-4-7-5-5--2-2-2-5-4-4--0-0-0-4-2-2-0-2-4-4-0---
    D:----------------------------------------------------
  • +
    ¡Colabora con nosotros!
    Envíanos tu versión de esta canción
  • Tutorial
    La guadalupana - Tutorial guitarra - como tocar - Tabs + acordes
    4:24

Letra de La Guadalupana
DESDE EL CIELO UNA HERMOSA MAÑANA (2)
LA GUADALUPANA, LA GUADALUPANA
LA GUADALUPANA BAJO AL TEPEYAC (2)
Suplicante juntaba sus manos (2)
Y eran mexicanos, y eran mexicanos
Y eran mexicanos su porte y su faz (2)
Su llegada llenó de alegría(2)
De luz y armonía, de luz y armonía
De luz y armonía todo el Anahuac (2)
Junto al monte pasaba Juan Diego(2)
Y acercose luego, y acercose luego
Y acercose luego al oír cantar (2)
Juan Dieguito la Virgen le dijo (2)
Este cerro elijo, este cerro elijo
Este cerro elijo para hacer mi altar (2)




[La Guadalupana acordes][La Guadalupana chords]
© LaCuerda.net · notícia legal · privacidade · es · en · pt · contato
DINAMICO