Cifras para Violão e Guitarra » P »Pablo Alborán » Solamente Tú (Tab)

Solamente Tú
Pablo Alborán

Letras, cifras e tablaturas para violão, guitarra, piano, ukulele e baixo

  • Fa#/LaM  202220
    MiM 022100
    Lamaj7 002120
    la#/ LaM7 012020
    Sim 224432
    Dom# 446654
    ReM  000232
    
    FA#/LA 
    Regálame tu risa,
    MI 
    enseñame a sonar
    FA#/LA 
    
    con solo una caricia
    MI 
    me pierdo en este mar
    SIm
    Regálame tu estrella,
    DO#m
    
  • REM9: 200220
    RE7M: 557675
    Misus2: 779977
    LA7M: 002120
    LA#dim7: 012020
    
    Intro: REM9, MI (X2)
    
                 REM9
    Regálame tu risa,
                 MI
    enséñame a soñar
                      REM9
    con solo una caricia
                      MI
    me pierdo en este mar
                      SIm7
    Regálame tu estrella,
                         DO#m7
    la que ilumina esta noche
    
  • e|----------------------------------------------------|
    B|--0------0-----0-----0------0----0---0----0----0----|
    G|--0------0-----0-----0------0---~0---0----0----0----|
    D|----0------0-----0-----0------0---0----0----0---0---|
    A|--0-------------------------0------------------0----|
    E|----------------------------------------------------|
     mas abajo estan escritos los acordes.....
    
    
    
    intro
    
    F#m7(addb13)   E  E6-E7
    F#m7(addb13)   E..
    
    
    
                 F#m7(addb13)
    Regálame tu risa,
                E
    
  • F#m7addb13: 200220
    Dmaj7: 557675
    Esus2: 779977
    F#m9: 244224
    Amaj7: 002120
    A#dis7: 012020
    
    Intro: F#m7addb13, E (X2)
    
    Estrofa
                   F#m7addb13
    Regálame tu risa,
                    E
    Enséñame a sonar
                        F#m7addb13
    Con solo una caricia
                      E
    Me pierdo en este mar
    
    Pre-coro
    
  • B|---5-s-7-5-5-------|---------------------------------|
    G|-6-----------7-6---|---------------------------------|
    D|-----------------7-|---7-7-7-9-9-(s-11-s-9-----------|
    A|-----------------7-|-7---------------------s-11-s-7)-|
    
       Con sólo una cariiiii…cia,         me pierdo en este mar.
    B|---5-s-7-5-5----------------------|-------------|
    G|-6-----------7-s-9-s-11-s-9-s-7---|-------------|
    D|--------------------------------7-|---7---7-9-6-|
    A|--------------------------------5-|-7---9-------|
    
       Regá…aa..aa…aalame tu estrella,
    B|-----------------------------------------------|
    G|-----------------------------------------------|
    D|--------------------------------------------12-|
    A|-7-s-9-s-7-s-11-s-7-s-12-7-s-14-14-14-12-12-12-|
    
       La que ilumina esta noche,   Llena de paz y de armonía,
    B|----------------------------|------------------------|
    G|-------------------------9--|----9-9-9----9-------11-|
    
  • +
    ¡Colabora con nosotros!
    Envíanos tu versión de esta canción
  • Tutorial
    HD
    Tutorial de como tocar Solamente Tú_Pablo Alborán
    6:04

Letra de Solamente Tú
Regálame tu risa,
enseñame a sonar
con solo una caricia
me pierdo en este mar
Regálame tu estrella,
la que ilumina esta noche
llena de paz y de armonía,
y te entregaré mi vida
Haces que mi cielo
vuelva a tener ese azul,
tintas de colores
mi mañana solo tú
navego entre las olas de tu voz
y tú, y tú, y tú, y solamente tú
haces que mi alma se despierte con tu luz
y tú, y tú, y tú..
Enseña tus heridas y así la curará
que sepa el mundo entero
que tu voz guarda un secreto
no menciones tu nombre que en el firmamento
se mueren de celos
tus ojos son destellos
tu garganta es un misterio
Haces que mi cielo
vuelva a tener ese azul,
tintas de colores
mi mañana solo tú
navego entre las olas de tu voz
y tú, y tú, y tú, y solamente tú
haces que mi alma se despierte con tu luz
y tú, y tú, y tú..
y tú, y tú, y tú, y solamente tú
haces que mi alma se despierte con tu luz
y tú, y tú, y tú..
no menciones tu nombre que en el firmamento
se mueren de celos
tus ojos son destellos
tu garganta es un misterio
Haces que mi cielo
vuelva a tener ese azul,
tintas de colores
mi mañana solo tú
navego entre las olas de tu voz
y tú, y tú, y tú, y solamente tú
haces que mi alma se despierte con tu luz
y tú, y tú, y tú..
y tú, y tú, y tú, y solamente tú
haces que mi alma se despierte con tu luz
y tú, y tú, y tú..




[Solamente Tú acordes][Solamente Tú chords]
© LaCuerda.net · notícia legal · privacidade · es · en · pt · contato
DINAMICO