Cifras para Violão e Guitarra » P »los Panchos » Sabor a mi (Tab)

Sabor a mi
los Panchos

Letras, cifras e tablaturas para violão, guitarra, piano, ukulele e baixo

  • INTRO: DO FA FAm MIm LAm REm SOL7 DO DOM7-DO             ORIGINAL DO
    
    DO    MIdim7       FA                  FAm
    Tanto tiempo disfrutamos de este amor,
                          MIm              LAm
    nuestras almas se acercaron tanto así,
                       REm
    que yo guardo tu sabor,
                      SOL7          DO  DOM7-DO
    pero tú llevas también, sabor a mí.
    
         MIdim7      FA                  FAm
    Si negaras mi presencia en tu vivir,
                     MIm                LAm
    bastaría con abrazarte y conversar,
                     REm
    tanta vida yo te di,
                         SOL7         DO  DOM7-DO7
    que por siempre llevaras, sabor a mí.
    
    
  •  D#dim       Ddim(1)    Am7        D7      Daug      Dmaj7
    e---5---|   e---4---|   e---x---|   e---x---|   e---2---|   e---9---|
    B---4---|   B---3---|   B---5---|   B---x---|   B---3---|   B---7---|
    G---5---|   G---4---|   G---5---|   G---5---|   G---3---|   G---7---|
    D---4---|   D---3---|   D---5---|   D---4---|   D---0---|   D---7---|
    A---X---|   A---X---|   A---X---|   A---5---|   A---X---|   A---X---|
    E---X---|   E---X---|   E---5---|   E---X---|   E---X---|   E---X---|
    
    (todo relativo al capo)
    
    Intro D#dim . . .
    G C7 D Ddim Em A7 D
    
          D#dim         G                   C7
    Tanto tiempo disfrutamos de este amor,
                           D              Ddim
    nuestras almas se acercaron tanto así,
                         Em
    que yo guardo tu sabor,
                       A7
    
  • TOno: A
    Intro:
    F#7 Bm Dm E7 A Bm C#m Cm Bm E7 A
    
    F#7           Bm                 Dm
    Tanto tiempo disfrutamos de este amor
      E7             A            Bm      C#m
    Nuestras almas se acercaron tanto así
           Cm          Bm
    Que yo guardo tu sabor
                     E7
    Pero tú llevas también
            A
    Sabor a mí
    F#7           Bm                   Dm
    Si negaras mi presencia en tu vivir
      E7             A            Bm      C#m
    Bastaría con abrazarte y conversar
       Cm          Bm
    Tanta vida yo te dí
    
  • F#7     242322
    Bm7     024232
    Bm11b5  X23230
    AM7     X02120
    C#m7    046454
    Cm7b5   X3434X
    E7      020100
    D       X00232
    DM7     XX0222
    Em7     020000
    A7      X02020
    F#m7    242222
    B7      024242
    Edim7   XX2323
    
    
    F#7
                      Bm7            Bm11b5
    Tanto tiempo disfrutamos de este amor
                            AM7  Bm7   C#m7  Cm7b5
    
  • Bdim7         Bm7                 E7
    Tanto tiempo disfrutamos de este amor
     Amaj7               Bm7        C#m7
    nuestras almas se acercaron tanto así,
     Cm7           Bm7
    que yo guardo tu sabor,
                     E7
    pero tú llevas también,
      Amaj7
    sabor a mí.
    
       Bdim7      Bm7        E7
    Si negaras mi presencia en tu vivir
             Amaj7 Bm7       C#m7
    bastaría con abrazarte y conversar
       Cm7       Bm7
    tanta dicha yo te di
               E7
    que por fuerza llevas ya,
    
    
  •                               Bm        E
    E-----------------------------------------
    B-7-8-9-10—-10--8-10-8-7---7-7---7-7-7-7--
    G-----------8------------9----------------
    D-----------10-----------------9----------
    A-----------9-----------------------------
    E-----------------------------------------
                          A             Bm              C#m
    E------------------------------------------------------
    B---7-8-10—8-7---7-8-10-8-7----------------------------
    G-9------------9------------9-7-6-7-8-9---7/9-7/9-7/9--
    D---------------------------------------7--------------
    A------------------------------------------------------
    E------------------------------------------------------
            Cm                        Bm
    E---------------------------------------------5----
    B-----7-8-7h8p7-5h7p5-------------------5-7-8---8--
    G-7-9-----------------7-6-4-6-7—--4-6-7------------
    D--------------------------------------------------
    A--------------------------------------------------
    
  • e----5---|
    B----4---|
    G----5---|
    D----4---|
    A----X---|
    E----X---|
    
    
    INTRO
    
             DIS.        Bm        E         A      Bm      C#m
    E-8-9-11-----9-8----8----8-8-8--|-----8-9-8---------------------|
    B-----------------11------------|--11-------11-9-11-----11-9-11-|
    G----------------------10-------|-------------------8-----------|
    D-------------------------------|-------------------------------|
    A-------------------------------|-------------------------------|
    E-------------------------------|-------------------------------|
     Cm       Bm           E             A
    E------------------------------------|----------------|
    B--8-9-11-9-8----9------8-9-8------8-|----9-8---------|
    
  • Este es el requinto de sabor a mi, es el requinto original, sin menospreciar
    la anterior, espero les guste.
    
    
     Sabor a mi
    
    e|-9--10--12--10--9----9-----9--9--9-|
    B|------------------12---------------|
    G|-----------------------11----------|
    D|-----------------------------------|
    A|-----------------------------------|
    E|-----------------------------------|
    
    e|----9--10--9-------------------------|
    B|-12----------12--10--12---12--12--12-|            
    G|------------------------9------------|   
    D|-------------------------------------|
    A|-------------------------------------|
    E|-------------------------------------|
    
    e|------------------------|---------------------|-------------|
    B|----10--12--10--9----10-|----9--10--9-------9-|----10--9--—-|            
    G|-11---------------11----|-11----------11--9---|-11-------11-|   
    D|------------------------|---------------------|-------------|
    A|------------------------|---------------------|-------------|
    E|-----------------
  •       Bdim          Em     Gm       A7      D       Em-F#m-Fm
     Š     ^
    e|-2-3-5-|-3-2-0-2---2---2-|-0-2-3-2-0---0---0---0-|-----0-------^---|
    B|-------|-----------------|-----------3-------3---|-2-3---3-2-0-3---|
    G|-------|---------4---4---|---------------2-------|-----------------|
    D|-------|-----------------|-----------------------|-----------------|
    A|-------|-----------------|-----------------------|-----------------|
    E|-------|-----------------|-----------------------|-----------------|
    
         A7           D               Am-D7    Am-D7
    E|-----------------2------|-0---0---2---0---|-2--0---2---0---2---0---|
    B|-0-2-3-2-0--2--------3--|---3---1---3---1-|---3--3---3---3---3-----|
    G|-----------2---2---2---.|-----------------|------------------------|
    D|-----------------------.|-----------------|------------------------|
    A|------------------------|-----------------|------------------------|
    E|------------------------|-----------------|------------------------|
    
              G         E7              A7       Š
    E|-------0-|-------2-|-----0-2-0-2-3-2-3-2-0-|
    B|-0-2-3---|-0-2-3---|-2-3-------------------|
    
  • +
    ¡Colabora con nosotros!
    Envíanos tu versión de esta canción
  • Tutorial
    HD
    Como tocar SABOR A MI en Guitarra - Tutorial con acordes - Bolero
    5:33

Letra de Sabor a mi
(todo relativo al capo)
Tanto tiempo disfrutamos de este amor,
nuestras almas se acercaron tanto así,
que yo guardo tu sabor,
pero tú llevas también,
sabor a mí.
Si negaras mi presencia en tu vivir
bastaría con abrazarte y conversar
tanta vida yo te di
que por fuerza llevas ya,
sabor a mí.
No pretendo, ser tu dueña
no soy nada yo no tengo vanidad,
de mi vida, doy lo bueno
soy tan pobre qué otra cosa puedo dar.
Pasarán más de mil años muchos más
yo no sé si tenga amor la eternidad
pero allá tal como aquí
en la boca llevarás
sabor a mí.
No pretendo, ser tu dueña
no soy nada yo no tengo vanidad,
de mi vida, doy lo bueno
soy tan pobre qué otra cosa puedo dar.
Pasarán más de mil años muchos más
yo no sé si tenga amor la eternidad
pero allá tal como aquí
en la boca llevarás
sabor a mí.
Sabor a mi
Espero que les haya gustado, a mi me encanta esta version,
y espero que ustedes la puedan reproducir tambien.
Si hay alguna duda o solicitud para una cancion,
my correo es adesas99@gmail.com
Muchas gracias.




[Sabor a mi acordes][Sabor a mi chords]
© LaCuerda.net · notícia legal · privacidade · es · en · pt · contato
DINAMICO