Cifras para Violão e Guitarra » P »Pappo » Blues Local (Tab)

Blues Local
Pappo

Letras, cifras e tablaturas para violão, guitarra, piano, ukulele e baixo

  •          G                  C                       G
           Anoche hubo fiesta... en el club de Blues Local.
             C                                          G
           Anoche hubo fiesta... en el club de Blues Local.
               D                 C                  G
           Sentados en una mesa... con amigos de verdad.
    
          (Como la preimera estrofa)
           Estabamos tomando... vino fino natural.
           Estabamos tomando... vino fino natural.
           Que buena estubo la fiesta... en el club de Blues Local.
    
          (Como la preimera estrofa)
           Recordé que me dijiste... que querías regresar.
           Recordé que me dijiste... que querías regresar.
           Siempre te estaré esperando... en el club de Blues Local.
  • Intro RE7 - DO7 - SOL7 - SOL7
    
    Anoche hubo fiesta en el club de blues local,
    anoche hubo fiesta en el club de blues local,
    sentados en una mesa con amigos de verdad.
    
    Estábamos tomando vino fino natural,
    estábamos tomando vino fino natural,
    qué buena estuvo la fiesta en el club de blues local.
    
    Solo
    (Estábamos fumando una planta natural)
    
    Recordé que me dijiste que querías regresar,
    recordé que me dijiste que querías regresar,
    siempre te estaré esperando, en el club de blues local.
    
    SOlo
    
    Anoche hubo fiesta en el club de blues local,
    
  • INTRO.
    1--------------|---------------|-------------|--------------|
    2--------------|---------------|-------------|--------------|
    3----77-55-----|----55-33------|-------------|--------------|
    4----------77--|----------55---|----55-33----|----55-33-----|
    5-55-----------|-33------------|----------55-|----------55--|
    6--------------|---------------|-33----------|-33-----------|
    
    anoche hubo fiesta en el club del blues local
    
    1--------------|---------------|-------------|-------------|
    2--------------|---------------|-------------|-------------|
    3--------------|----55-33------|-------------|-------------|
    4----55-33-----|----------55---|----55-33----|----55-33----|
    5----------55--|-33------------|----------55-|----------55-|
    6-33-----------|---------------|-33----------|-33----------|
    
    anoche hubo fiesta en el club del blues local
    
    1|---------------|---------------|-------------|-------------|
    2|---------------|---------------|-------------|-------------|
    3|----55-33------|----55-33------
  • Y  para ustedes que lo pedian uno de los mejores blues que escuche en
    mi vida, por no decir el mejor, ahora, en tabs =)
    
    INTRO
    
    e|--13-15-13-15~~~~~~13-15-13~----------------------15-13----------------
    B|----------------------------15-13-----------12p15-------15-14-11/13p11-
    G|----------------------------------15-12--15----------------------------
    D|-----------------------------------------------------------------------
    A|-----------------------------------------------------------------------
    E|-----------------------------------------------------------------------
    
    e|-----------------------------------------------------------------------
    B|-----11-13-11h13b------------------------------------------------------
    G|--12-------------------------------------------------------------------
    D|-----------------------------------------------------------------------
    A|-----------------------------------------------------------------------
    E|-------------------------------------------------------
  • INTRO
           G
    -------------------
    -----55--33--------  x4
    ------------55-----
    --33---------------
    
    
    VERSO
           G                C                G               G
    ----------------------55--33-------------------------------------
    -----55--33------------------55--------55--33----------55--33----
    ------------55-----33-------------------------55--------------55-
    --33--------------------------------33---------------33----------
    
           C                C                  G            G
    -----55--33-----------55--33------------------------------------
    -----------------------------55--------55--33---------55--33----
    --33--------55-----33-------------------------55-------------55-
    ------------------------------------33--------------33----------
    
    
           D                 C               G               G
    -----77--55-----------55--33------------------------------------
    -------------77--------------55--------55--33----------55--33---
    --55---------------33--------------
  • <(4)(5)> termolo
    [(4)(5)] arcorde
    No esta perfecto, pero.. bastante bien
    
    de verdad...
    (2) (3) 4 (4)b 4 (3)b (2),(2) (3)b 4 (3)b
    estabamos tomando...
    (2) (3)b 4 (3)b
    fino natural...
    <(4)(5)> (3) 4 (4)b (3)b (2)   El tremolo mas tiempo en el 4
    tomando...
    (2) (3)b 4 (3)b
    fino natural...
    (3)b(3)b, 4 (3) 4 (3) 3 (2)b, 4 (3) (2)
    la fiesta...
    (2) (3)b 4 (3)b
    blues local...
    (2) (3) 4 (4)b 4 (3)b (2), (2) (3)b4 (3)b
    ***Guitarra***
    me dijiste...
    
  • +
    ¡Colabora con nosotros!
    Envíanos tu versión de esta canción
  • Tutorial
    HD
    Explicado - Como tocar "Blus Local" de Pappo en el bajo tutorial#331
    10:05

Letra de Blues Local
Anoche hubo fiesta... en el club de Blues Local.
Anoche hubo fiesta... en el club de Blues Local.
Sentados en una mesa... con amigos de verdad.
(Como la preimera estrofa)
Estabamos tomando... vino fino natural.
Estabamos tomando... vino fino natural.
Que buena estubo la fiesta... en el club de Blues Local.
(Como la preimera estrofa)
Recordé que me dijiste... que querías regresar.
Recordé que me dijiste... que querías regresar.
Siempre te estaré esperando... en el club de Blues Local.




[Blues Local acordes][Blues Local chords]
© LaCuerda.net · notícia legal · privacidade · es · en · pt · contato
DINAMICO