Cifras para Violão e Guitarra » P »Patricio Rey y sus Redonditos de Ricota » Barba Azul vs. el amor letal (Tab)

Barba Azul vs. el amor letal
Patricio Rey y sus Redonditos de Ricota

Letras, cifras e tablaturas para violão, guitarra, piano, ukulele e baixo

  • INTRO: SIm  FA#m SIm  FA#m  LAm MIm LAm RE FA#
                            
    SIm  
    Esta vez, por fin, la prisión 
       FA#m           
    te va a gustar.
    SIm
    El reo semental se va a licuar 
       FA#m           
    En la prisión.
    
    LAm         
    Gatas lindas, sirenas llenas.
    MIm            
    Camisa apretada, pezón radioactivo.
    LAm         
    Reclamando el botín para la prisión
        RE
    Del dios prisión feliz prisión... Del dios
    
    
  • INTRO: Bm F#m Bm F#m Am Em Am Em Gm Bbm Bm F#m
    
    Bm
    Esta vez, por fin, la prisión
    F#m
    te va a gustar.
    Bm
    El reo semental se va a licuar
    F#m
    En la prisión.
    
    Am
    Gatas lindas, sirenas llenas.
    Em
    Camisa apretada, pezón radioactivo.
    Am
    Reclamando el botín para la prisión
        D                             F#
    Del dios prisión feliz prisión... Del dios
    
    
  •      SIm                FAm               LA *                 MI*
    e|--(10)|-10-------|---(9-)-|-9-----|--|--(12)-|-12-----|----(7)-|-7-----7-----|-----|-----|
    B|-(12)-|----12----|--(10)--|--10---|--|-(13)--|---13---|--(8)---|---8-----8---|-----|-----|
    G|(11)--|-------11-|-(11)---|----11-|X2|(14)---|-----14-|(9)-----|-----9-----9-|-LA*-|-MI*-|
    D|------|----------|--------|-------|--|-------|--------|--------|-------------|-----|-----|
    A|------|----------|--------|-------|--|-------|--------|--------|-------------|-----|-----|
    E|------|----------|--------|-------|--|-------|--------|--------|-------------|-----|-----|
            _____X2_______   _____X2_______        _____X2_____   _____X2_____
    BAJO:  |  SIm         | |  FAm         |      |   LA       | |     MI     |   
    G|---|-----------------|-----------------|--|---------------|--------------|--|
    D|-ƒ-|---------4-4-0-4-|-----------------|X2|-------2-2---2-|--------------|X2|
    A|---|-2--5--2---------|---------4-4-0-4-|--|-0-3-0-----3---|-------2-2--2-|--|
    E|---|-----------------|-2--5--2---------|--|---------------|-0-3-0-----3--|--|
    
    sigue asi...
    GUITARRA:
         SOL                               SI                                  SIm           FA#
    e|-10------10-------10------10------|-13------13-------13------13------|--10-|-10---10-|----9-|
    B|---11--11--11---11--11--11--11--11|---14--14--14---14--14--14--14--14|-12--|-12-%-12-|--10--|
    G|-----12-------12------12------12--|-----15-------15------15------15--|11---|-11---11-|11----|
    
  •           SIm                        FA#m
    1|-----------7---------|-----------2---------2-----|
    2|-----------7---------|-----------2---------2-----|
    3|-----------7-7-9-9-7-|-----------2-----2---2-----|
    4|-9-9-9-9-9---7-9-9-7-|-4-4-4-4-4---------4---2-0-|
    5|-9-9-9-9-9-----------|-4-4-4-4-4---2h4-----------|
    6|-7-7-7-7-7-----------|-2-2-2-2-2-----------------|
    
    
              LAm                     MIm
    1|-----------5---------|-----------0-------0-0-|
    2|-----------5---------|-----------0-------0-0-|
    3|-----------5-5-7-7-5-|-----------0-------0-0-|
    4|-7-7-7-7-7---5-7-7-5-|-2-2-2-2-2---2-2-2-----|
    5|-7-7-7-7-7-----------|-2-2-2-2-2---2-2-2-----|
    6|-5-5-5-5-5-----------|-0-0-0-0-0---0-0-0-----|
    
    
    ---Intro
    
    
  • LA CANCION ESTA SIN EL SOLO; EL CUAL AHORA AGREGO
    
    1|----------------------------------------------------------
    2|-------------------------------------------------10-------
    3|--9b(11)-9b(11)-9b(11)-9b(11)-9b(11)-9b(11)-9s11----------
    4|----------------------------------------------------------
    5|----------------------------------------------------------
    6|----------------------------------------------------------
    
    
    1|----------------------------------------------------------
    2|------12----10----12----10-----12-------------------------
    3|---11----11----11----11----11-----------------------------
    4|----------------------------------------------------------
    5|----------------------------------------------------------
    6|----------------------------------------------------------
    
    1|-12-12^10^9-10^9----9----------------------------------------
    2|-----------------12---12^10-12^10^9-10^9----9-------------10-
    3|-----------------------------------------11---11-9-9b(11)----
    4|--------------------
  • Intro X1   
    |----------------|----------------|----------------|----------------|
    |--------4-4---4-|--------4-4---4-|----------------|----------------| 
    |2-2-5-2-----5---|2-2-5-2-----5---|--------4-4---4-|--------4-4---4-|
    |----------------|----------------|2-2-5-2-----5---|2-2-5-2-----5---|
    
    |----------------|----------------|----------------|----------------|
    |--------4-4---4-|--------4-4---4-|----------------|----------------| 
    |2-2-5-2-----5---|2-2-5-2-----5---|--------4-4---4-|--------4-4---4-|
    |----------------|----------------|2-2-5-2-----5---|2-2-5-2-----5---|
     
    |----------------|----------------|--------4-4---4-|--------4-4---4-|
    |----------------|----------------|----5-------5---|----5-------5---| 
    |--------7-7---7-|--------7-7---7-|7-7---7---------|7-7---7---------|
    |5-5-8-5-----8---|5-5-8-5-----8---|----------------|----------------|
    
    |----------------|----------------|--------4-4---4-|--------4-4---4-|
    |----------------|----------------|----5-------5---|--
  • +
    ¡Colabora con nosotros!
    Envíanos tu versión de esta canción

Letra de Barba Azul vs. el amor letal
Esta vez, por fin, la prisión
te va a gustar.
El reo semental se va a licuar
En la prisión.
Gatas lindas, sirenas llenas.
Camisa apretada, pezón radioactivo.
Reclamando el botín para la prisión
Del dios prisión feliz prisión... Del dios
Barbazul de esta prisión.
Tu aullido esta vez, quiera Dios, no se va a oír
En la prisión.
Puede la Virgen labial brillar
En risas pillas manzanas firmes
De viejas feas como monos, puaj.
Y antiguas lobas pulpas que reviven
El amor letal
de esta prisión.
REPITE TODA LA CANCION OTRA VEZ (EXEPTO EL INTRO)




[Barba Azul vs. el amor letal acordes][Barba Azul vs. el amor letal chords]
© LaCuerda.net · notícia legal · privacidade · es · en · pt · contato
DINAMICO