Cifras para Violão e Guitarra » P »Patricio Rey y sus Redonditos de Ricota » Murga de la Virgencita (Tab)

Murga de la Virgencita
Patricio Rey y sus Redonditos de Ricota

Letras, cifras e tablaturas para violão, guitarra, piano, ukulele e baixo

  • Intro: MIm SOL
    
    MIm           SOL
    Marita lo hace por la guita
    MIm          SOL
    con bomberos del cuartel
    MIm                SOL
    su barrio que es tan inclemente
    MIm            SOL
    y su comparsa siempre es cruel.
    
    DO
    Sueña con que su rollo sea
    película de amores suaves.
    
    MIm        SOL
    Ah ah ah ah ah
    MIm       SOL
    Ah ah ah ah ah
    
    
  • Guitarra 1:      MI           SOL
    E|-------------------------------------------------------------|
    b|-------------------------------------------------------------|
    G|--------------9-9-9------------------------------------------|X4
    D|--9-----------9-9-9--9-------------------12-12-12-12--/------|
    A|--7--7-7-7-7--7-7-7--7-/-10-10-10-10-10--10-10-10-10--/------|
    E|-------------------------------------------------------------|
    PM     .......                ...........
    
    y sigue asi
    
    Guitarra 1:   MI                 SOL
    E|-----------------------------|-------------------------------|
    b|-----------------------------|-------------------------------|
    G|----9----9---9----9---9--9-/-|----12---12--12---12--12--12---|X2
    D|----9----9---9----9---9--9-/-|----12---12--12---12--12--12---|
    A|--7----7---7----7---7----7-/-|--10---10--10---10--10----10/--|
    E|-----------------------------|-------------------------------|
    
    Guitarra 2:
    
  •  Intro: (Em-G)
    Guitarra 1:   (Em)                (G)
    E|-------------------------------------------------------------|
    b|-------------------------------------------------------------|
    G|-------------------------------------------------------------|X4
    D|--9-----------9-9-9--9-------------------12-12-12-12--/------|
    A|--7--7-7-7-7--7-7-7--7-/-10-10-10-10-10--10-10-10-10--/------|
    E|-------------------------------------------------------------|
    Guitarra 2:  (Em)                        (G)
    E|-----------------------------|-------------------------------|
    B|---12---12--12---12---12-----|----15---15--15---15--15-------|
    G|--9----9---9----9---9----9---|--12---12--12---12--12---12----|X2
    D|-----------------------------|-------------------------------|
    A|-----------------------------|-------------------------------|
    
    Bajo:  (Em)                         (G)
    G|-----------------------------|-------------------------------|
    D|-----------------------------|--------------------2----------|X2
    A|-----------------------------|--------------2--5-------------|
    E|--0--0--0---0-0-0------------|---3---3-3---------------------|
    
  • e|----------------------------------------|          \
    b|----------------------------------------|          |
    g|----------------------------------------|          |
    d|-/9-9-9-9--9-9-9-9-9/12-12-12--12-12-12-|          |
    a|-/7-7-7-7--7-7-7-7-7/10-10-10--10-10-10-|          |
    e|----------------------------------------|          |  5 veces
                                                         |
                                                         |
    e|----------------------------------------------|    |
    b|----------------------------------------------|    |
    g|----------------------------------------------|    |    
    d|-12/9--9-9-9--9-9-9-9-9/12-12-12--12-12-12-12-|    |
    a|-10/7--7-7-7--7-7-7-7-7/10-10-10--10-10-10-10-|    |
    e|----------------------------------------------|    /
     
    
      Guitarra 2
    
    e|-7 / esta nota debe rasguearse rapido hasta que \--10 /                    \-|
    b|-8 | llegue el tiempo del cambio de nota, que es|--12 | idem nota anterior |-|
    
  • Intro:
    G|----------------|x8
    D|----------------|
    A|----------------|
    E|-0h3-33-33-33---|
    
    Verso:
    G|----------------|x8
    D|----------------|
    A|----------------|
    E|-0h3-33-33-33---|
    
    Coro:
    G|--------------------|
    D|----------3---------|
    A|-3(x16)-5---3(x16)--|
    E|--------------------|
    
    Puente:
    G|----------------|x4
    D|----------------|
    A|----------------|
    E|-0h3-33-33-33---|
    
    Verso:
    G|----------------|x8
    D|----------------|
    A|----------------|
    E|-0h3-33-33-33---|
    
    Coro:
    G|--------------------|
    D|----------3---------|
    A|-3(x16)-5---3(x16)--|
    E|--------------------|
    
    Puente:
    G|----------------|x4
    D|----------------|
    A|----------------|
    E|-0h3-33-33-33---|
    
    Verso Nº2 ('los coches van y vienen...'):
    G|-------------------------|
    D|-------------------------|
    A|-------------------------|
    E|-(0)---(0)---(0)---(0)---|
    
     |--------------------|
     |--------------------|
     |-0(x16)-2-4-0(x16)--|
     |--------------------|
    
     |-------------------------|
     |
  • +
    ¡Colabora con nosotros!
    Envíanos tu versión de esta canción
  • Tutorial
    HD
    Explicado - Como tocar "Murga de la virgencita" de Los Redondos en el bajo tutorial#313
    14:34

Letra de Murga de la Virgencita
Marita lo hace por la guita
con bomberos del cuartel
su barrio que es tan inclemente
y su comparsa siempre es cruel.
Sueña con que su rollo sea
película de amores suaves.
Ah ah ah ah ah
Ah ah ah ah ah
La murga de la virgencita
es aguijón picante y miel
se tambalea en sus tacones
no tiene nada que perder.
Nunca pudo comer del queso
sin que la trampera la aplaste.
Los coches van y vienen
y su ilusión fulana.
LAº7
Se empolva la nariz
muerde el labio y va otra vez.
Para ahogar arcadas gusto a menta
junto con sus bostezos.
LAº7
Sus chulos son religión
De cucharangos que hacen temblar
de miedo su boquita
ay ay mi virgencita.
(Riff en LAº7)
LAº
Se maquilla la piel
para el túnel del amor.
y también para su tren fantasma
con la boquita seca.
LAº
Será el propio buen dios
quien toca asi el tambior.
Y que ahuyenta su clientela
y la aflige con tristezas.
Pilchitas de poliéster
y santidad de virgen.




[Murga de la Virgencita acordes][Murga de la Virgencita chords]
© LaCuerda.net · notícia legal · privacidade · es · en · pt · contato
DINAMICO