Cifras para Violão e Guitarra » P »Patricio Rey y sus Redonditos de Ricota » Preso en mi ciudad (Tab)

Preso en mi ciudad
Patricio Rey y sus Redonditos de Ricota

Letras, cifras e tablaturas para violão, guitarra, piano, ukulele e baixo

  • A                                  Bm
    Una vez le hice el amor a una drácula con tacones:
    A                                            Bm
    era un "pop" violento que guió el gran estilo siniestro.
    
    G
    Ahora ya no llora...
    A                                             Bm
    ¡Preso en mi ciudad! (¡¡¡ja-ja-ja!!!).
                              A
    Casi ya no llora, ¡atrapado en libertad!
    
    
    Practicamos tiro al pichón
    y un test para ir al espacio
    con mi delicioso campeón
    y el rock como todo llanto
    
    ahora ya no llora...
    Preso en mi ciudad (¡¡¡ja-ja-ja!!!).
    
  • preso en mi ciudad (version vivo antultimo ensayo)
    
    INTRO
    1|-----(5)--5---------(7)--7----
    2|-----(5)---5--------(7)---7---
    3|-----(6)----6-------(8)----8--
    4|-(7)----------------(9)-------
    5|-(7)----------------(9)-------
    6|-(5)----------------(7)-------
    
    RIFF
    1|------------------------------------
    2|------------------------------------
    3|---4---2---4-2----------------------
    4|--------------5-4-2-4-5---2-4-5-----
    5|-----------------------2-------2----
    6|----------------------------------5-
    
    RIFF2
    1|----------------------------------------------------------------------
    2|----------------------------------------------------------------------
    3|----------------------------------------------------------------------
    4|---------2------2---4--4----4--4------------2------2---(7)------7(x5)-
    5|-2--4--5--2-4-5-------7-------7-----2--4--5--2-4-5-----(7)------------
    6|------------------5-------5----------------------------(5)--7-5-------
    
    INTER
    1|--------------------------------------------
    2|---
  • PARTE A
    1|--------------------------------|----|-
    2|--------------------------------|----|-
    3|-4-2-4-2------------------------|-%%-|-
    4|----------5-4-2-4-5---2-4-5-----|----|-
    5|--------------------2-------2p0-|----|-
    6|--------------------------------|----|-
    
    PARTE B
    1|-------------------------------------------------
    2|-------------------------------------------------
    3|-------------------------------------------------
    4|-------2-------2---4-2-4---4-2-4-------2-------2-
    5|-2-4-5---2-4-5---0-------0-------2-4-5---2-4-5---
    6|-------------------------------------------------
    
    1|-------------------------
    2|-------------------------
    3|-----------------2-2-2-2-
    4|-------------------------
    
  • este es el punteo que hace skay en el concierto de river lo saque enchuchando el cd si alguien lo tiene
    bueno que lo aproveche es el que toco en river ojala que les sirve si lo quieren conseguier el cd en prque rivadabia 
    lo consigen o en lavalle  
     
    |-------------------------------
    |-9h10-10h12------8h9-9h13------
    |-------------------------------   x2
    |-------------------------------
    |-------------------------------
    |-------------------------------
     
    
    I)
    |-----------------------------------------------------------------------------------------------------------
    |-12--10--12-12-12-10--------------------------------------12--10-10--12h10---------------------------------
    |----------------------12-11--10--11h12----9-11-11h12------------------------12-11-9--11h12---9-11-11h12----
    |---------------------------------------9-------------9--9----------------------------------9------------9--
    |--------------------------------------------------------------------------------------
  • PUNTEO 1
    1|-----------------------------------------|-----------------------------------------|-->
    2|-12-10-12-10-----------------------------|-12-10-12-10-----------------------------|-->
    3|-------------12-11-9-11-12---9-11-12-----|-------------12-11-9-11-12---9-11-12-----|-->
    4|---------------------------9---------9-7-|---------------------------9---------9-7-|-->
    5|-----------------------------------------|-----------------------------------------|-->
    6|-----------------------------------------|-----------------------------------------|-->
    
    PUNTEO 2
    1|-------------------------------------|----------------------------------------------------------------|
    2|-----------------------7---7---7---7-|---------------------------------------10-10-10-10-10-10-7-10---|
    3|---------9---------9-----9-------9---|---------9---------9--------------------------------------------|
    4|-9-11-12---9-11-12---7-------7-------|-9-11-12---9-11-12---7-7-7-7-7-7-9-7-----------------
  • Riff 1:
    
    
    ----------------------------------------------------
    ----------------------------------------------------
    -4-----4--------------------------------------------
    ----7-----7--5--4-----4--5--------4--5--------------
    -------------------7-----------7--------------------
    ----------------------------7-----------7--5--------
    
    
    
    Riff 2:
    
    
    ----------------------------------------------------
    ----------------------------------------------------
    ----------------------------------------------------
    ----------------------------4-----4-----4-----4-----
    ----4--5--7-----4--5--7--------7-----------7--------
    -7------------7----------5-----------5--------------
    
    
    ---------------------------------------------------
    ---------------------------------------------------
    ---------------------------------------------------
    ---------------------------------------4-----------
    --4--5--7------4--5—7------------------------------
    7------------7---------55555555--7--5--------------
    
    
    
    Intro: Hay dos guitarra
  • Intro
    G|-----------------------------------|x4
    D|-----------------------------------|
    A|-0-0-0-0-0-0-0-0--2-2-2-2-2-2-2-2--|
    E|-----------------------------------|
    
     |----------------------------------------|
     |----------------------------------------|
     |----------------------2-22-2-22---------|
     |-3-33-3-33--5-55-5-55-----------5(x24)--|
    
    Verso:
    G|-----------------------------------|x2
    D|-----------------------------------|
    A|-0-0-0-0-0-0-0-0--2-2-2-2-2-2-2-2--|
    E|-----------------------------------|
    
    Coro:
    G|----------------------------------------|
    D|----------------------------------------|
    A|----------------------2-22-2-22---------|
    E|-3-33-3-33--5-55-5-55-----------5(x24)--|
    
    Solos de Saxo
    G|----------------------------------------|
    D|----------------------------------------|
    A|----------------------2-22-2-22---------|
    E|-3-33-3-33--5-55-5-55-----------5(x24)--|
    
    Final
    G|----------------------------|
    D|----------------------------|
    A|--------------
  • C: crash 
    S: splash
    H: hi-hat (X: abierto, x: cerrado)
    R: ride (X: campana, x: plato)
    t: tacho
    T1: tom 1
    T2: tom 2
    Ch: chancha
    B: bombo 
    
    Intro:
    Repite este compas 8 veces. El platillaso del 1er tiempo lo mete 1 c/ dos compases
    C |-X-----------------------|
    S |-------------------------|
    H |----x--x--x—-x--x--x--x--|
    R |-------------------------|
    T |-------------------------|
    T1|-------------------------|
    T2|-------------------------|
    Ch|-------------------------|
    B |-o-----o-----o-----o-----|
    
    Despues empieza el riff, y hace este ritmo:
    C |-------------------------|
    S |-------------------------|
    H |-x--x--x--x—-x--x--x--x--|
    R |-------------------------|
    T |-------o-----------o-----|
    T1|-------------------------|
    T2|-------------------------|
    Ch|-------------------------|
    B |-o-----o-----o-----o-----|
    Lo repite todo el tiempo, hasta; “ahora ya no llora, preso en mi ciudad”, que hace:
    C |-X-----------------------|
    S |-------------------------|
    H |-
  • +
    ¡Colabora con nosotros!
    Envíanos tu versión de esta canción
  • Tutorial
    Como Tocar Preso en mi Ciudad - Patricio Rey y Sus Redonditos de Ricota
    10:18

Letra de Preso en mi ciudad
Una vez le hice el amor a una drácula con tacones:
era un "pop" violento que guió el gran estilo siniestro.
Ahora ya no llora...
¡Preso en mi ciudad! (¡¡¡ja-ja-ja!!!).
Casi ya no llora, ¡atrapado en libertad!
Practicamos tiro al pichón
y un test para ir al espacio
con mi delicioso campeón
y el rock como todo llanto
ahora ya no llora...
Preso en mi ciudad (¡¡¡ja-ja-ja!!!).
Casi ya no llora,
¡atrapado en libertad!
Fue un esclavo sensible y chillón
y fácil para el gatillo
atrapó un beso bienhechor
con ojos al rojo vivo.
Ahora ya no llora
(casi ya no llora...).
TodoUnPalo:Si Tecabe, mandame un mail asi nos intercambiamos temasos.




[Preso en mi ciudad acordes][Preso en mi ciudad chords]
© LaCuerda.net · notícia legal · privacidade · es · en · pt · contato
DINAMICO