Cifras para Violão e Guitarra » P »Pescado Rabioso » Como el viento voy a ver (Tab)

Como el viento voy a ver
Pescado Rabioso

Letras, cifras e tablaturas para violão, guitarra, piano, ukulele e baixo

  • e----------------------------
    b----------------------------
    g---4-4-4-4-4---------------- 
    d---4-4-4-4-4-2--------4-4---
    a---2-2-2-2-2-0------1-4-5-0-
    E---------------3-2--0-2-3---
    
    
    
    Esto es lo que hace sobre Bm7(lo repite 10 veces).
    e----------2----2------------
    b----------2h3--3------------
    g----------2----2------------
    d----------2h4--4------------
    a----------2----2------------
    E---1*2-5--------------------
    *:el mismo dedo se desplaza al siguiente traste
    h:piso la cuerda con el dedo
    
    Esto es lo que hace sobre Em7 (repite 4 veces)
    
  • e----------------------------------
    b-------3------3-------------------
    g---4-4-4--4-4-4-------------------
    d---4-4-4--4-4-4---2-----------2---
    a---2-2-2--2-2-2---0-5-4-2-4-5-0---
    E--------------------3-2-0-2-3-----
    
    Bm7 (lo repite 10 veces).
    Vos no me dejaste, nena
    vos no me dejaste
    tampoco yo a vos
    
    e----------2----2------------
    b----------2h3--3------------
    g----------2----2------------
    d----------2h4--4------------
    a----------2----2------------
    E---1/2-5--------------------
    
    
    
  • ---www.spinettachords.com.ar----
    
    Acordes:
    Bm: 799777
    Em: x79987
    F#m: 244222
    G: xx5787
    G7: xx5767
    D: xxx111010
    Em7: 022033
    D5: x577xx
    F#: 244322
    Bm(II): x24432
    
    
    Intro:
    e|--------------------|--------------------|--||
    b|--------------------|--------------------|--||
    g|--------------------|--------------------|--||
    D|-7/9-9--9--7/9-9--9-|-9-7-5-4-2---4-5-7--|x8||
    
  • Este tema esta transcripto del disco de estudio “Pescado 2”.
    También hay una buena version en vivo en el disco “San Cristoforo”.
    
                                          “Vos no me…”
               7 veces                      9 veces
    G|-----------------------------|-----|-------------|----------------------
    D|-----------------------------|-----|-------------|-9-----9--------------
    A|-2|2-2-2|2-2-2---------------|--2--|-14----------|----------7----5-5--7-
    E|--------------5-3-2-0--2|3-5-|-----|-----2--5--7-|----7---------5----7--
    
                                     3 veces                     “Muy bien yo…”
    G|-9-7------------------------|-------------|-----------------------------
    D|----9-----------------------|-------------|--9999999--------------------
    A|-----7-7--7----5-5--7-------|-14----------|----------9--9-9--9-9--9-9--9
    E|---------7----5----7------7-|-----2--5--7-|-----------------------------
    
                              “Como el viento voy a ver”
    G|-------------------------
  • +
    ¡Colabora con nosotros!
    Envíanos tu versión de esta canción

Letra de Como el viento voy a ver
Esto es lo que hace sobre Bm7(lo repite 10 veces).
*:el mismo dedo se desplaza al siguiente traste
h:piso la cuerda con el dedo
Esto es lo que hace sobre Em7 (repite 4 veces)
Esto es lo que hace sobre F#m (solo una vez)
Vos no me dejaste, nena
vos no me dejaste
tampoco yo a vos
Vos no me dejaste, nena
vos no me dejaste
tampoco yo a vos
Muy bien, yo se que el tiempo es impreciso
no se lo que pensar.
Como el viento voy a ver
como el viento voy a ver
como el viento uuuuhhhhh
si es que puedo amarte.
EL solo no lo saque, pero esta sobre la misma base.
Y arreglito es este:
Espero les guste y les resulte facil la explicacion.MAXI




[Como el viento voy a ver acordes][Como el viento voy a ver chords]
© LaCuerda.net · notícia legal · privacidade · es · en · pt · contato
DINAMICO