Cifras para Violão e Guitarra » P »Pescado Rabioso » Hola pequeño ser (Tab)

Hola pequeño ser
Pescado Rabioso

Letras, cifras e tablaturas para violão, guitarra, piano, ukulele e baixo

  • e ---------10-10----------10-10-----------------------------
      ------10--------------------------------------------------
      -12-b-14-------12-b-14--------12-b-14-b-12-b-14-12-14-----
      ----------------------------------------------------------
      ----------------------------------------------------------
    E ----------------------------------------------------------
    
    Arranca el acorde desde Mi5 hasta Re5
    
    Riff 1
    e -----------------------------------------
      -----------7--9--7-9-s-11-9-7-9-----------
      -----------7--9--7-9-s-11-9-7-9-----------  x3
      -5--7--9---------------------------------
      -----------------------------------------
    E -----------------------------------------
    
    
          RE     LA#
         ¡Hola, pequeño ser!
    
  • ---www.spinettachords.com.ar----
    
    Acordes:
    E5: 022xxx
    F5: 133xxx
    F#5: 244xxx
    G5: 355xxx
    G#5: 466xxx
    A5: 577xxx
    A#5: 688xxx
    B5: 799xxx
    C: 81010xxx
    C#5: 91111xxx
    D5: 101212xxx
    D: x57775
    Bb: x13331
    F#: 244322
    G: 355433
    A: 577655
    Em: x79987
    
  • G|----------------------------------------------------------------
    D|----------------------------------------------------------------
    A|----------------------------------------------------------------
    E|-0-0-0-0-1-1-1-1-2-2-2-2-3-3-3-3-4-4-4-4-5-5-5-5-6-6-6-6-7-7-7-7
    
    G|------------------------------------
    D|------------------------------------
    A|------------------------------------
    E|-8-8-8-8-9-9-9-9-9-9-9-9-10-10-10---
                                                               \
    G|-------------------------------------------------------  |
    D|-------11|12|11-12|12-----------11|12|11-12|12---------  |
    A|---------------------12-----------------------12-------  |
    E|-10-10-----------------10-10--10------------------10-10  |Parte
                                                               |  A
    G|----------------------------------------------------     |
    D|-------11|12|11-12|12--------------11|12|11-12------     |
    A|---------------------12------------------------0-3-4     |
    E|-10-10----------
  • +
    ¡Colabora con nosotros!
    Envíanos tu versión de esta canción

Letra de Hola pequeño ser
Arranca el acorde desde Mi5 hasta Re5
Riff 1
¡Hola, pequeño ser!
si tu mente se viaja tienes que parar
No, no, no, pequeño ser
si tu mente se viaja tienes que parar
y aprender a vivir de lo que vos pensás
(Repite el Riff 1)
¡Hola a todos!, pequeño ser
lo que amaba en vos ya no lo tengo más.
No, no, no, pequeño ser
si tu mente se viaja tienes que parar
y aprender a vivir de lo que vos pensás.
PUNTEO EN RE
Hacelo por mí, pequeño ser
Repite Riff 2 todo el punteo
(Aquí canta sobre LA5 SOL5 FA5 MI5 RE5 FA5 MI5
tocar la 8º suena mejor)
Se acerca ya la sombra del cuervo
en la mesa está la araña de fiebre, ¡oh!,
nadie quiere ya las flores del campo
y en la tumba estás al lado del charco
y no podés más
Repite este riff varias veces




[Hola pequeño ser acordes][Hola pequeño ser chords]
© LaCuerda.net · notícia legal · privacidade · es · en · pt · contato
DINAMICO