Cifras para Violão e Guitarra » P »los Prisioneros » La cultura de la basura (Tab)

La cultura de la basura
los Prisioneros

Letras, cifras e tablaturas para violão, guitarra, piano, ukulele e baixo

  • REm 
      
    FA               REm FA               REm 
    Escuchando radio vamos al estadio
     
    FA                            REm FA  
    Nos gusta Julio Iglesias y el Rockabilly 
    LA                                LA7 
    Tenemos la Cultura de la Basura
     
    LA                 LA7  
    Tenemos la cabeza dura.  
     
    Comemos pan con pan
     
    Leemos historietas  
    La tele nos da sueño...pero de noche  
    Conservo un afiche de Raphael
     
    Y me peino como él 
    
  • REm   MI    FA     REm  MI        FA
    Escuchando radio  vamos al estadio 
    REm       MI             FA           REm   MI FA
    Nos gusta el Julio Iglesias  y el Rockabilly 
       LA
    Tenemos la Cultura de la Basura
                  REm-MI
    tenemos la cabeza dura. 
     FA         REm  MI  FA
    Comemos pan con pan, leemos historietas 
    REm     MI  FA         REm  MI FA
    la tele nos da sueño, pero de noche 
        LA
    conservo un afiche de Raphael y me peino como él 
     LA
    tengo un casete de Luis Miguel 
             LA
    y colecciono servilletas de papel 
    
     REm             DO        LA
    
  • Hinche tanto pa que me dijeran este bajo y nadie me lo daba asi que 
    me aburrí y lo hice yo mismo, espero que les guste.
    No se si ta igualito como lo hace el Jorge pero si se que suena la raja
    
    A)
    1-------------------------------|
    2-------------------------------|
    3-55555--5----------------------|
    4----------0—1----------013-----|
    
    B)
    1--------------------------|
    2--------------------------|
    3--------------------------|
    4---5-5-5-5-5-5-5-5-5-5----|
    
    C)
    1----7---8---9---10----------------------------------------------------|
    2--------------------10---11-----12----13------------------------------|
    3---5---6---7---8---------------------------12-12-12-12-12-12-12-12-12-|
    4-------------------8----9-----10----11--------------------------------|
    
    D)
    1--------------------------|
    2---55667-7-7--------------|
    3--------------------------|
    4--------------------------|
    
    
    Orden:
    A)   x4
    B)
    A)   x4
    B)
    C)   x2
    D)   x3
    A)   x4
    B)   
    C)   x2
    D)   x3     
    C)   Ha
  • +
    ¡Colabora con nosotros!
    Envíanos tu versión de esta canción

Letra de La cultura de la basura
Escuchando radio vamos al estadio
Nos gusta el Julio Iglesias y el Rockabilly
Tenemos la Cultura de la Basura
tenemos la cabeza dura.
Comemos pan con pan, leemos historietas
la tele nos da sueño, pero de noche
conservo un afiche de Raphael y me peino como él
tengo un casete de Luis Miguel
y colecciono servilletas de papel
De la cultura de la Basura
De la cultura de la Basura
No vamos al estadio, escuchando radio
nos carga Julio Iglesias, y el jabón Lux
Odiamos a los jefes de nuestra fábrica
copiamos a los jefes de nuestra fábrica
cenamos con los jefes de nuestra fábrica
marchamos con los jefes de nuestra fábrica
De la cultura de la Basura
De la cultura de la Basura
Somos la cultura de la basura, tenemos la cabeza dura




[La cultura de la basura acordes][La cultura de la basura chords]
© LaCuerda.net · notícia legal · privacidade · es · en · pt · contato
DINAMICO