Cifras para Violão e Guitarra » P »los Prisioneros » Lo estamos pasando muy bien (Tab)

Lo estamos pasando muy bien
los Prisioneros

Letras, cifras e tablaturas para violão, guitarra, piano, ukulele e baixo

  • Em
    Como puedes ver las vitrinas estan llenas
      G
    de cosas que comprar
    Em                               G
    en sus autos la gente va feliz a trabajar
       Em
    no hay problemas ni necesidad 
    G                 D
    este lugar es ideal, para vivir lo mejor.
    
    Todos tenemos mucho dinero para gastar 
    compramos en el parque arauco y en el almac
    nada es muy caro si se trata de nuestra felicidad.
    
    Todos tenemos trabajo digno y bien pagado
    nadie  esta en desventaja ni es maltratado
    nuestros jefes nos sonrian y nosotros tambien a ellos.
    
    Aqui no roba nadie ni hay por que robat
    
  •      Em         G   x3    D             x2
          
     E--7-7-7-7-7--7-7-7-7-7--5-5-5--5--6--       
     B--8-8-8-8-8--8-8-8-8-8--7-7-7--7--7--
     G--9-9-9-9-9--7-7-7-7-7--7-7-7--7--8--
     D-------------------------------------
     A-------------------------------------
     E-------------------------------------
    
     Como puedes ver las vitrinas están llenas 
          
     de cosas que comprar 
                                     
     En sus autos la gente va feliz a trabajar 
     
     No hay problemas... ni necesidad... 
                        D 
     Este lugar es ideal... (Para vivir, lo mejor) 
                                             
     Todos tenemos mucho dinero para gastar 
    
  • -=Intro=-
       repite 6x
    G|-----------------|----------------------------------
    D|-----------------|----------------------------------
    A|-----------------|------------------2-2-2-2-2-2-2-2-
    E|-0--0--3--3--5-3-|-0--0--3--3--3-5------------------
    
    -=Riff=-
    G|---------------------------------
    D|---------------------------------
    A|---------------------------------
    E|-0--0--0--2--3-3--2--3-----5--7--
    
    G|---------------------------------
    D|---------------------------------
    A|---------------------------------
    E|-0--0--0--2--3-3--2--3--5--3--2--
    
    G|---------------------------------
    D|---------------------------------
    A|---------------------------------
    E|-0--0--0--2--3-3--2--3--7--5--3--
    
    G|---------------------------------
    D|---------------------------------
    A|-5--5-5-5--5-5-5--5-5-5--6-------
    E|---------------------------------
    
    -=Primer Verso=-
    G|----------------------------------------------
    D|----------------------------------------------
    A|------(pausa)------
  • Los prisioneros: lo estamos pasando muy bien
    Album: De La Cultura De La Basura
    Tabulada por: juancirilo
    
     Intro:
    
    G ------------------------------------
    D ------------------------------------
    A --9-------------9-------------------
    E ---7---7-9-10----7---7-9-10---------
    
    G ------------------------------------
    D ------------------------------------
    A --9---------------------------------
    E ---7---7-9-10--10-9-5------5-6------
    
     Verso: 
    
    G ------------------------------------
    D ------------------------------------
    A --9-------------9-------------------
    E ---7---7-9-10----7---7-9-10---------
    
    G ------------------------------------
    D ------------------------------------
    A --9---------------------------------
    E ---7---7-9-10—10-9-5------5-6-------
    
     Intermedio:
    
    G ---------------------------------------
    D ---------------------------------------
    A ------777-------------777--------------
    E --777-----777-5-6-777-----5555-6-------
    
    G ----------------------
  • +
    ¡Colabora con nosotros!
    Envíanos tu versión de esta canción

Letra de Lo estamos pasando muy bien
Como puedes ver las vitrinas estan llenas
de cosas que comprar
en sus autos la gente va feliz a trabajar
no hay problemas ni necesidad
este lugar es ideal, para vivir lo mejor.
Todos tenemos mucho dinero para gastar
compramos en el parque arauco y en el almac
nada es muy caro si se trata de nuestra felicidad.
Todos tenemos trabajo digno y bien pagado
nadie esta en desventaja ni es maltratado
nuestros jefes nos sonrian y nosotros tambien a ellos.
Aqui no roba nadie ni hay por que robat
nuestros sueldos son buenos y hasta podemos ahorrar
ven a jugar a que somos un pais de verdad.
Lo estamos pasando muy bien yea yea yea yea
engordamos bastante iaiaiao
esto es magnifico lalalalala
La comida es muy buena si lo que quieres es comer
el vino las carnes un pollito muy bien asado
todos quedamos satisfechos despues del almuerzo
¡no es cierto? si que lo es, si que lo es.
si se trata de estudiar , ahi esta la universidad
un abogado un arquitecto una enfermera puedes ser
el trato es serio la enseñanza es buena
y el costo.....¡que importa el costo¡
a si que..
lo estamos pasando muy bien....
esta cancion es usper buena un saluda a la sofia ,
y a toda la gente,.




[Lo estamos pasando muy bien acordes][Lo estamos pasando muy bien chords]
© LaCuerda.net · notícia legal · privacidade · es · en · pt · contato
DINAMICO