Cifras para Violão e Guitarra » P »los Prisioneros » Maldito Sudaca (Tab)

Maldito Sudaca
los Prisioneros

Letras, cifras e tablaturas para violão, guitarra, piano, ukulele e baixo

  • INTRO:  A
    
    
    1)
    
        A              C
    MALDITO SUDACA MALDITO LATINO
       A                C
    INMUNDO CHILENO PERUANO ARGENTINO
    
    1)
    MALDITO SUDACA MALDITO LATINO
    INMUNDO CHILENO PERUANO ARGENTINO
    
    2)
        D                     E 
    NO PONGAS TUS MANOS EN MI CAR
        D                     E   
    NO PONGAS TUS DEDOS EN MI CAR
    
    
  • Hola, Mi Nombre es Gonzalo Bernal y soy de Punta Arenas, Chile.
    Esta parte de la 'cancion' Maldita Sudaca corresponde al final 
    de esta pero en la version en Vivo 
    Del Estadio Nacional, aqui se las dejo:
    (Me Parece que corresponde a la cancion 'SanTo Cachón)
    
    / = Deslizar el dedo hasta el espacio que te pide, ej: 8/10 desde 
    el espacio 8 deslizas el dedo hasta el espacio 10
    (12) = Nota Fantasma, si quieres la tocas, en realidad es como para 
    complementar un poco...
    
    ....Eta Eta Eta Eta One, tWO, Three, Four...:
    6|---------------------------------------------------|
    5|----------------------------------13-15-13-13-12---|
    4|-12-12-12-9--12-12-12-9--12-12-12------------------|
    3|---------------------------------------------------|
    2|---------------------------------------------------|
    1|---------------------------------------------------|
    
    6|---------------------------------------------------|
    5|-12-13-15-15-15-13-13-12--12-13-(12)---------------|
    4|------------------
  •     A        C       A         C        A
    e-------------------------------------------------|
    b-------------------------------------------------|
    g----------5-5-5-5-----------5-5-5-5--------------|
    d-7-7-7-7--5-5-5-5--7-7-7-7--5-5-5-5--7-7-7-7-----|
    a-7-7-7-7--3-3-3-3--7-7-7-7--3-3-3-3--7-7-7-7-----|
    e-5-5-5-5-----------5-5-5-5-----------5-5-5-5-----|
    
         C         B
    e-----------------------------------------|
    b-----------------------------------------|
    g-5-5-5-5--4-4-4-4-4-4-4-4----------------|
    d-5-5-5-5--4-4-4-4-4-4-4-4----------------|
    a-3-3-3-3--2-2-2-2-2-2-2-2----------------|
    e-----------------------------------------|
    
    coro:
    LA LA LA...
    
         A       C       D         E                 D
    
  • Versos:
    G|-----------------|-----------------|
    D|-----------------|-----------------|
    A|-0-------0---0-2-|-3-------3-5-3-2-|
    E|-----0-----0-----|-----3-----------|
    
    'No pongas tus manos en mi car':
    G|-----------------|-----------------|
    D|-0-0-0-0-0-------|---------2-------|
    A|-----------0-----|-----2-------2---|
    E|--------------2--|-0---------------|
    
    La la laa...:
    G|-----------------|-----------------|-----------------|-----------------|
    D|-----------------|-----------------|-----------------|-----------------|
    A|-----------------|-----------------|-----0-----------|-0-2-3-----------| 2x
    E|-0-2-3-----------|-3-2-0-----------|-0-3-------------|-----------------|
    
    G|-----------------|
    D|-----------------|
    A|-3---2-----------|
    E|-----------------|
    
    Eso es toda la canción. No es na' tan dificil.
  • +
    ¡Colabora con nosotros!
    Envíanos tu versión de esta canción

Letra de Maldito Sudaca
1)
MALDITO SUDACA MALDITO LATINO
INMUNDO CHILENO PERUANO ARGENTINO
1)
MALDITO SUDACA MALDITO LATINO
INMUNDO CHILENO PERUANO ARGENTINO
2)
NO PONGAS TUS MANOS EN MI CAR
NO PONGAS TUS DEDOS EN MI CAR
1)
COCHINO SUDACA COCHINO LATINO
HORRIBLE BOLIVIANO VIL ECUATORIANO
1)COCHINO SUDACA COCHINO LATINO
HORRIBLE BOLIVIANO VIL ECUATORIANO
2)
NO TE FIJES EN MI MUJER
NO SALUDES A MI MUJER
3)
LALALA....
(2 VECES)
LALA
1)ESCUCHA SUDACA ATIENDE LATINO
RUFIAN URUGUAYO O VENEZOLANO
ESCUCHA SUDACA ATIENDE LATINO
RUFIAN URUGUAYO O VENEZOLANO
2)
TRAIGO EN MI ABRIGO UN REVOLVER
EN MI CORAZON HAY UN REVOLVER
1)
MALDITO LATINO MALDITO MEXICANO
MALDITO SUDACA MALDITO COLOMBIANO
1)
MALDITO LATINO MALDITO PARAGUAYO
MALDITO SUDACA MALDITO LATINO
2)
NO ESCUPAS EN MI CIUDAD
NO ESCUPAS EN MI PAIS
NO ESCUPAS EN MI PLANETA




[Maldito Sudaca acordes][Maldito Sudaca chords]
© LaCuerda.net · notícia legal · privacidade · es · en · pt · contato
DINAMICO